Портал для гитаристов
gtars.ru

Red Hot Chili Peppers — By The Way (ver 9)

 #----------------------------------PLEASE NOTE--------------------------------#
#This file is the author's own work and represents their interpretation of the#
#song. You may only use this file for private study, scholarship, or research.#
#-----------------------------------------------------------------------------#

Red Hot Chili Peppers
By The Way

Tabbed by Andres (la_laker83@hotmail.com)


This is such a cool song!
I have so much fun playing it!


**INTRO

E--------8-----------------------------------
B--------x-----------------------------------
G--10----9----------10----9-------9-9-7-7----
D--10---10---7------10---10---7--------------
A-----------(7)---------------7--------------
E--------------------------------------------
  [8x] [8x] [16x]  [8x] [8x] [12x]

E-------------------------8------------------
B-------------------------x---10----10-------
G--10---------------10----9----9-----9-------
D--10---10---7------10---10----7-------------
A-------10---7-------------------------------
E--------------------------------------------
  [8x] [8x] [16x]  [8x] [8x] [12x] [4x]