Портал для гитаристов
gtars.ru

Red Hot Chili Peppers — Californication Live

 Artist: Red Hot Chili Peppers
Song: Californication LIVE
DVD: Off The Map
Tabbed By: GARY RUDDELL

NOTES: 
This is the live version off the dvd: OFF THE MAP
Play the solo relaxed...ESSENTIAL

INTRO:
e:-5-5---7-8-7-5-12-10-8-7-------------------------|
B:-----5-------------------10-12-8-13-12-10-12-8-8-|
G:-------------------------------------------------|
D:-------------------------------------------------|
A:-------------------------------------------------|
E:-------------------------------------------------|

e:----------------------------------------------------|
B:---13-10---10-10-10-10------------------------------|
G:-9-------9-------------9-9-12-9---9-----------------|
D:--------------------------------12-12-10-12/14-142-|
A:----------------------------------------------------|
E:----------------------------------------------------|


VERSE PART 1:
     Am          F
e:----------|-----------|
B:-----0-1~-|-----------|
G:----------|-----0-2~--|
D:---2------|-----------|
A:-0--------|---3-------|
E:----------|-1---------|

VERSE PART 2:
     C          G         F       Dm
e:-----0---|---------|---------|-----1-|
B:-------1-|-----3---|---------|-----3-|
G:---------|-------0-|---------|---2---|
D:---2-----|---------|-----3---|-0-----|
A:-3-------|---2-----|---3---3-|-------|
E:---------|-3-------|-1-------|-------|

PRE-CHORUS:
  Am  F  
Аккорд AmАккорд FАккорд CАккорд GАккорд Dm