Портал для гитаристов
gtars.ru

Red Hot Chili Peppers — Californication (ver 8)

 Red Hot Chili Peppers, Californication
Philip, pkfs@hotmail.com
Here is the main riff to the song. It is quite easy to take out by yourself.
main riff:
    Am~              F
e|--------------------------------------------
B|--------1-1-1h3p1---------------------------
G|------4------------------2--2-0-------------
D|----2------------------3--------------------
A|--0------------------3----------------------
E|-------------------1------------------------

verse to chorus / intro to chorus
    C     G     F
e|--------------------------------------------
B|--------------------------------------------
G|------0-------------------------------------
D|----2-------0-----3-------------------------
A|--3-------2-----3------0--------------------
E|--------3-----1-----------3-----------------

Please mail pkfs@hotmail.com if you have any comments.

 
Аккорд FАккорд CАккорд G