Портал для гитаристов
gtars.ru

Red Hot Chili Peppers — Catholic School Girls Rule

 E|--------------------------------------------------------|
B|----------------------5-5-5-------------------------7---|
G|-------4-4------------5-5-5-----------------------5-7-5-|
D|-------4-4------------5-5-5-----------------------5-7-5-|
A|-------4-4--------------5-5--------3----------------7---|
E|-5-5-0-4-4-x-3--5-5-0-------3--5-5---5-5-3--5-5-0-------|

E|------------------------------------------------|
B|-----------------------------------------12-7-7-|
G|-----------5---------------4--4-------------7-7-|
D|-----------5-5-5-----------4--4-------------7-7-|
A|-------------5-5-----------4--4-----------------|
E|-(3)-5-5-0-------3---5-5-0-4--4-x-5-5-0---------|
 

Red Hot Chili Peppers — Catholic School Girls Rule

 Red Hot Chili Peppers
Catholic school girls rule
tabbed by Truijllo
                                                                     
Chorus
G |---------------------------------------------------------------------
D |---------------------------------------------------------------------
A |-------------------------3---------------------------------5---------
E |--3-5-5---3-5-5---3-5-5----5-5-3-5-5---3-5-5--3-5-5--3-5-5---5-3-5---

riff
G |---------------------------------------------------------------------
D |---------------------------------------------------------------------
A |---3-2---------------------------------------------------------------
E |-5-------------------------------------------------------------------
variation                                                               
G |---------------------------------------------------------------------
D |---------------------------------------------------------------------
A |---------------------------------------------------------------------
E |-1-2-2-3----...-...-...--/3-4-4-5------------------------------------

verse 2                                                                 
G |---------------------------------------------------------------------
D |--3-------5-------3---5--7-------------------------------------------
A |----5-5-5---5-5-5---5--5---5-------...-...--7-7-7---7-7-7---7-7-7-7-7...
E |---------------------------------------------------------------------
                                                                        
G |---------------------------------------------------------------------
D |---------------------------------------------------------------------
A |---------------------------------------------------------------------
E |---------------------------------------------------------------------                                                                       


 
Аккорд GАккорд DАккорд AАккорд E