Портал для гитаристов
gtars.ru

Red Hot Chili Peppers — Dance Dance Dance

 Verse:
D ......Em

(D)
|--x-x-x-x-x-x-x-x-x-|
|--x-x-x-x-x-x-x-x-x-|
|--x-x-x-x-x-x-x-x-x-|
|--7-x-7-x-7-x-7-x-7-|
|--5-x-5-x-5-x-5-x-5-|
|--------------------|

|-~14-~~14--~~12--~~-10---|
|-------------------------|
|-------------------------|
|-------------------------|
|-------------------------|
|-------------------------|

(Em)
|--x-x-x-x-x-x-x-x-x-|
|--x-x-x-x-x-x-x-x-x-|
|--x-x-x-x-x-x-x-x-x-|
|--9-x-9-x-9-x-9-x-9-|
|--7-x-7-x-7-x-7-x-7-|
|--------------------|

|-~14-~~14--~~12--~~-10---|
|-------------------------|
|-------------------------|
|-------------------------|
|-------------------------|
|-------------------------| 
Аккорд DАккорд Em