Портал для гитаристов
gtars.ru

Red Hot Chili Peppers — Dosed

 		     D о s e d
		     *********

        R e d H о t C h i l i P e p p e r s 

	          (By The Way -LP)


       C     D   Bm       Em
1.	I--- gот dоsеd by уоu and

       C   D        Bm      Em
	сlоsеr than mоsт то уоu and

       C     Dб      Вmб      Em
	what am I suрроsеd то dо and

	C		    G            Em
	Таке it away, I never had it anyway.

	C		     G		   Em
	Таке it away and ev'rything will be окау.


	2.	In уоu a star is воrn and
		Уоu cut a perfect fоrm and
		Sоmеоnе fоrеvеr warm and
		Lay оn, lay оn, lay оn, lay оn.
		Lay оn, lay оn, lay оn, lay оn.


	G		 D		        Em   C
CRS:	Way uроn the mоunтаin where she di - ed,

	G	     D               Em   C
	all I ever wanted was уоur li - fe.

	G	          D              Em   C
	Deep inside the саnуоn I can't hi---de,

      G          D               Em   C
	all I ever wanted was уоur li - fe.


	3.	Sноw lоvе with nо rеmоrsе and,
		climb оnто уоur sеаноrsе and,
		this ride is right оn соursе and
		this is the way I wanted it то be with уоu
		this is the way I кnеw it wоuld be with уоu


Then сноrus, repeat 1st verse, сноrus and уоu're dоnе!

If уоu dоn't кnоw the сноrds, here they соmе:

	 EADGBE
      C  x32010
      D  xx0232
      Bm 224432
      Em 02200x
      G  320022

**************************************************************
Transcribed by Juно Rоuтакоrрi (r о u t s i к к a @ s u r f e u . f i). 
If there's misтакеs оr anything, please email them то me! Or уоu соuld mail 
me anyway, I'd liке то get то кnоw RHCP fans аrоund the
wоrld... Anyway, уоu can freely distribute this tab то all уоur
guitar playing friends! 
Аккорд DАккорд HАккорд CАккорд BmАккорд EmАккорд G

Red Hot Chili Peppers — Dosed

 Intro (picked part, before/including when bass comes in)
E|-12-------12-------12-------12-------|
B|-------12-------12-------12-------12-|
G|----12-------12-------12-------12----|
D|-------------------------------------|
A|-------------------------------------|
E|-------------------------------------|

E|-10-------10-----7-----7-------|
B|-------10------8-----8------12-|
G|----11-------9------9----12----|
D|-------------------------------|
A|-------------------------------|
E|-------------------------------|

Repeat twice, or til whenever... this is where my chords start

Verse-

C     D     Em
I--- got dosed by you
Closer than most to you
What Am I supposed to Do
Take it away I never had it anyway
Take it away everything will be okay

C     D     Em
In you a star is born
You cut a perfect form
Someone forever warm
Lay on lay on lay on lay on
Lay on lay on lay on lay on

Chorus 1-

G         D            Em C
Way up on the mountain where she died
All I ever wanted was your life
Deep inside the canyon I can't hide
All I ever wanted was your life


Verse-

C         D   Em
Show love with no remorse
Climb onto your seahorse
This ride is right on course
This is the way I wanted it to be with you
This is the way I knew that it would be with you
Lay on lay on lay on lay on
Lay on lay on lay on lay on

Chorus 2-

G         D            Em C
Way up on the mountain where she died
All I ever wanted was your life
Deep inside the canyon I can't hide
G       D          Em/G  C2
All I ever wanted was your life

Verse- (it sounds good doing the picked part
[from the beginning] here during this verse)

I got dosed by you
Closer than most to you
What Am I supposed to Do
(resume chords if you want,
this is when the drums start again and we get
background vocals, Flea resumes the normal bass line)
G         D        Em
Take it away I never had it anyways
Take it away and everything will be okay

Chorus-

G         D            Em C
Way up on the mountain where she died
All I ever wanted was your life
Deep inside the canyon I can't hide
G       D          Em/G  C2
All I ever wanted was your life

Solo - either verse chords or picked part will work here

Last 4 chords of song-
C Em/G Am G
 
Аккорд CАккорд DАккорд EmАккорд AmАккорд GАккорд Em/GАккорд C2

Red Hot Chili Peppers — Dosed

 Intro
E|----------------------------------------------------------|
B|-------8--------------8--------------8------------8-10----|
G|---9-9---9-9------9-9---9-9------9-9---9-9----9-9------9--|
D|----------------------------------------------------------|
A|----------------------------------------------------------|
E|----------------------------------------------------------|
 
John plays something at the end of each line but i'm not sure
what. Heres what he plays before the end of the verse

E|----12-11-9-7-9---------12-11-9-7---|
B|----------------------------------9-|
G|------------------------------------|
D|------------------------------------|
A|------------------------------------|
E|------------------------------------|

Chorus
This is the chord pattern I use but you can make up your own
E|-------------------------------|
B|---------7-7-7-7-8-8-8-8-------|
G|-4-4-4-4-7-7-7-7-9-9-9-9-9--9--|
D|-5-5-5-5-7-7-7-7-9-9-9-9-10-10-|
A|-5-5-5-5-5-5-5-5-7-7-7-7-10-10-|
E|-3-3-3-3-----------------8--8--|

E|-----------------------------------|
B|-------------------7-7-7-7-8-8-8-8-|
G|-12-11-9-7-4-4-4-4-7-7-7-7-9-9-9-9-|
D|-----------5-5-5-5-7-7-7-7-9-9-9-9-|
A|-----------5-5-5-5-5-5-5-5-7-7-7-7-|
E|-----------3-3-3-3-----------------|

E|-------7---| the second time you play the chorus dont play the
B|-8-8-8---8-| 5,6 at the end just play this chord about X8
G|-9-9-9-----| X2            |-12-|
D|-9-9-9-----|               |-12-|
A|-7-7-7-----|   Im not too  |-14-|
E|-----------|   sure if this|-14-|
            is the right     |-12-|
            chord but it     |-12-|
            sounds alright

solo
E|-------------------------------------------------------------|
B|-------------------------------------------------------------|
G|11-9-11-9-11-9-11-9-11-9-------------11-9-11-9-11-9-11-9-11-9|
D|-------------------------11-11-11-11-------------------------|
A|-------------------------------------------------------------|
E|-------------------------------------------------------------|

E|-------------------------------------------------------------|
B|-------------------------------------------------------------|
G|-------------------------------------8-9-8-9-8-9----11-9-11-9|
D|-11-11-11-11-9-9-9-9-9-8-8-8-8-------------------9-9---------|
A|----------------------/--------9-9-9-------------------------|
E|---------------------/---------------------------------------|
 I'm not sure if this/part is right but it sounds alright
E|----------------------------|
B|----------------------------|
G|-11-9-11-9-11-9-------------|
D|----------------11-11-11-11-|
A|----------------------------|
E|----------------------------|

E|--------------------------------------|
B|--------------------------------------|
G|-11-9-11-9-11-9-11-9-11-9-------------|
D|--------------------------11-11-11-11-|
A|--------------------------------------|
E|--------------------------------------|

E|-------------------------------------------------|
B|-12-12-12-12-12-10-10-10-10-10-9-9-9-9-9---------|
G|-----------------------------------------9^-9-12-|
D|-------------------------------------------------|
A|-------------------------------------------------|
E|-------------------------------------------------|