Портал для гитаристов
gtars.ru

Red Hot Chili Peppers — Easily Live

 ======================================================
*                                                    *
*               Red Hot Chili Peppers                *
*           Easily LIVE - Off The Map DVD            *
*    NOTE: SOLOS ARE DIFFERENT THAN ALBUM VERSION    *
*             TABBED BY: GARY RUDDELL                *
*                                                    *
*=====================================================

Intro/Verse

     Asus2         A open     A17       Fmaj7          Asus2
e:-0-0-0-0-0--0-0-0-0-0-0-0-0-0-0-x-x-0-0-0-0-0-x-0-0-0-0-0-0-0-|
B:-0-0-0-0-0--0-0-0-0-0-0-0-0-0-0-x-x-1-1-1-1-1-x-0-0-0-0-0-0-0-|
G:-2-2-2-2-2b-2-2-2-2-2-2-2p0-0-0-x-x-2-2-2-2-2-x-2-2-2-2-2-2-2-|
D:-2-2-2-2-0--0-0-0-0-0-0-0-0-0-0-x-x-3-3-3-3-3-x-2-2-2-2-2-2-2-|
A:-0-0-0-0-0--0-0-0-0-0-0-0-0-0-0-x-x-3-3-3-3-3-x-0-0-0-0-0-0-0-|
E:-x-x-x-x-x--x-x-x-x-x-x-x-x-x-x-x-x-x-x-x-x-x-x-x-x-x-x-x-x-x-|


Chorus - If you observe the DVD you will clearly see that GOD (JOHN)
         differentiates between open and ваrrи chords during the chorus.

   OPEN CHORDS   |  BARRE CHORDS
   C    G  Fmaj7 | C    G    F
e:-0----3----0---|-3----3----1---|
B:-1----3----1---|-3----3----1---|
G:-0----0----2---|-5----4----2---|
D:-2----0----3---|-5----5----3---|
A:-3----2----3---|-3----5----3---|
E:-x----3----x---|-3----3----1---|

SOLO 1

e:----------------------------------------------------------|
B:-8-8-8p6-----8-8-8-8-8p6-----8p6-----8p6---8-8-8-12-10-12-|
G:---------7-7-------------7-7-----7-7-----7----------------|
D:----------------------------------------------------------|
A:----------------------------------------------------------|
E:----------------------------------------------------------|

e:-------------------------------------------|
B:-15-15h17-17-17-17-17----------------------|
G:----------------------12-14-14-14-14-14-14-|  
Аккорд DVDАккорд Asus2Аккорд AАккорд A17Аккорд Fmaj7Аккорд CАккорд GАккорд F