Портал для гитаристов
gtars.ru

Red Hot Chili Peppers — Fight Like A Brave

 Intro
ALbum:The Uplift Mofo Party Plan.... CHILLI'S RULE!!!
TABBED BY DAN RUDKIN OF STEYNING, WEST SUSSEX, ENGLAND.PEACE.
E||----------------------------------------------------------------------|
B||------------------------------------------------5~--------------------|
G||--------------------------------------5---------5~--------------------|
D||-7777777--7777777--7777777---777777-5-5-777777-5-7777777--------------|
A||-0000000--0000000--0000000---000000-0---000000-0-0000000--------------|
E||----------------------------------------------------------------------|
                  RRRROCK!!

E||----------------------------------------------------------------------|
B||---------5~--------------------5~-----------------5~------------------|
G||---------5~--------5-----------5~-----------------5~--------5---------|
D||-777777-5-777777-5-5--777777-5--7777777-7777777-5--777777-5-5---------|
A||-000000-0-000000-0----000000-0--0000000-0000000-0--000000-0-----------|
E||----------------------------------------------------------------------|


E||----------------------------------------------------------------------|
B||----------5~-----------------5~---------------------------------------|
G||----------5~-----------------5~---------5-----------------------------|
D||-777777-5---7777777-777777-5---777777-5-5-----------------------------|
A||-000000-0---0000000-000000-0---000000-0-------------------------------|
E||----------------------------------------------------------------------|

Chorus (0:40)

E||----------------------------------------------------------------------|
B||----------7~--------99~---------7~------------------------------------|
G||----------7~--------99~---------7~------------------------------------|
D||-999999-7---999999-----999999-7---9999999---7-5-(LET RING)------------|
A||-000000-0---000000-----000000-0---0000000---0-5-----------------------|
E||----------------------------------------------------------------------|
    FIGHT LIKE A BRAVE......

E||----------------------------------------------------------------------|
B||----------------------------------------------------------------------|
G||-----------------------------------------5^---------------------------|
D||-7777777--7777777--7777777--777777-5h6h7---7~---------------------------|
A||-0000000--0000000--0000000--000000------------------------------------|
E||----------------------------------------------------------------------|

THEN BASICALLY PLAY INTRO UNTILL YOU GET TO THE PART JUST BEFORE THE BASS INTERLUDE.
(1:43)
D||--77-55-77-55-(LET RING)---------|
A||--00-55-00-55--------------------|
E||---------------------------------|

BASS INTERLUDE

SOLO 1
(2:05)
E||--------------------------10^-10^--8-10-8-10-8-10-8-10-8-----10--------|
B||--------------7~------------------------------------------10^---10-8~--|
G||--------------7~-------------------------------------------------------|
D||-5/9999995/9-----X2---------------------------------------------------|
A||-0/000000
Аккорд AАккорд BE