Портал для гитаристов
gtars.ru

Red Hot Chili Peppers — Fight Like A Brave (bass)

 G|------------5h6-|
D|----5h7-@-------|
A|--0-------0-----|
E|----------------|
 
variation 1
G|------------9---6-|
D|----5h7-@---------|
A|--0-------0---0---|
E|------------------|

Chorus
G|-------------------------------------------------------------|
D|---9-9-9-7-----------9-9-9-7---------9-9-9-7----------9-9----|
A|------------9-8-7------------9-8-------------9-8-7-----------|
E|-----------------5--------------5-6---------------5------5-0-|

Variation 2 (second riff)
G|----------6h7------------6h7-------|
D|---6h7-6---------6h7-@-------7-7p6-|
A|-0------0------0-------0-----------|
E|-----------------------------------| 

Red Hot Chili Peppers — Fight Like A Brave Bass

 Artist: Red Hot Chili Peppers
Song: Fight Like a Brave
Album: The Uplift Mofo Party Plan / What Hits!?
Tab by: Yamen Hazem
E-mail: yamen_hazem@yahoo.com

Been looking for this bass solo all over the internet, couldn't find the correct tab.
I think this is 100% correct. I hope it helps you.


G--------7--------I------------7-------------------------------------|
D--6-----------7--I------6-----------6-----7-----7-------------------|
A----7-----7------I--------7-----7-----5-----5-----4-----------------|    x 10
E------0-----0----I----0-----0-----0-----0-----0---------------------|
   P S S P S S P       S P S S P S S P S S P S S P S


At the end of the 1st part in the 3rd time you go:

---------------|
---------------|
---10---------|
---------------|

Any comments don't hesitate to contact me by e-mail. Long live the Chili Peppers!