Портал для гитаристов
gtars.ru

Red Hot Chili Peppers — Freaky Styley

 Freaky Styley
Red Hot Chili Peppers
Freaky Styley

tabbed by TomAnthony

G----------5----------5-5------------5----------5-5-
D--7-------5----7-----5-5----7-------5----7-----5-5-
A----0------------0------------0------------0-------
E---------------------------------------------------

G----------5----------5-5------------5----------5-5-
D--7-------5----7-----5-5----7-------5----7-----5-5-
A----0------------0------------0------------0-------
E---------------------------------------------------

G----------5----------5-5------------5----------5-5-
D--7-------5----7-----5-5----7-------5----7-----5-5-
A----0------------0------------0------------0-------
E---------------------------------------------------

G----------5----------5-5------------5----------5-5-
D--7-------5----7-----5-5----7-------5----7-----5-5-
A----0------------0------------0------------0-------
E---------------------------------------------------

G----------5----------5-5------------5----------5-5-
D--7-------5----7-----5-5----7-------5----7-----5-5-Repeat many times.
A----0------------0------------0------------0-------
E---------------------------------------------------


Fin~