Портал для гитаристов
gtars.ru

Red Hot Chili Peppers — Get On Top

 Intro & Verse
E--------------------------------------------
B--------------------------------------------
G--------------------------------------------
D--------------------------------------------
A--7-7-7-7-10-10-10-10---7-7-7-10-10-10-10---
E--------------------------------------------
                                                                              
Chorus
E--------------------------------------------
B--------------------------------------------
G--------------------------------------------
D--7-7-10-10---7-7--10-10--------------------
A--------------------------------------------
E--------------------------------------------
                                                                              
Riff (played right after chorus)
   E5  
E--12--12--12----12--------------------------
B--12--12--12----12--------------------------
G--------------------------------------------
D--------------------------------------------
A--------------------------------------------
E--------------------------------------------
                                                                         
Play this 2 times.
E--5---8----
B--6---5----
G-----------
D-----------
A-----------
E-----------
                                                                              
Play this 2 times.
E-----------
B--6---5----
G--7---5----
D-----------
A-----------
E-----------
                                                                              
 
E---------------------------------------------------
B---------------------------------------------------
G--------------------------5-----5--5p7h5--7--------
D--5h7-7--7p5-7--------5/7---7----------------5/7---
A---------------5-----------------------------------
E---------------------------------------------------

Bass                                                                              
E---------------------------------------------------
B---------------------------------------------------
G---------------------------------------------------
D---------------------------5-----------------------
A---------3-3-5-5-5/7---8-------7-------------------
E--5-5-5--------------------------------------------
                                                                              
   A5
E--------------
B--------------
G--7-7-7-------
D--7-7-7-------
A--5-5-5-------
E-------------- 
Аккорд E5Аккорд G-----------Аккорд D-----------Аккорд A-----------Аккорд E-----------Аккорд A5