Портал для гитаристов
gtars.ru

Red Hot Chili Peppers — Get On Top (bass)

 Intro (wait for guitar)
G|--------------------------------------------------------------------------|
D|--------------------------------------------------------------------------|
A|-------------19-19-17-19-----------------------19-19-17-19----------------|
E|-0--0----0-------------0---0-X-3p0-3p0-0-0-0-0-----------0--6p5-0-3p0-3p0-|

G|--------------------------------------------------------------------------|
D|--------------------------------------------------------------------------|
A|------19-19-17-19-----------------------19--19-17-19----------------------|
E|0-0-0-----------0-3-0-0-3p0-3p0-0-0-0-0------------0-17-17-17-18-18-19-19-|

Verse
G|--------------------------------------------------------------------------|
D|--------------------------------------------------------------------------|
A|--------19-19--17-19-------------------------19-19-17-19------------------|
E|-0--0-0------------0--0--X-3p0-3p0---0-0--0-0----------0---6p5-0-5p0-3p0--|

G|--------------------------------------------------------------------------|
D|--------------------------------------------------------------------------|
A|--------19-19-17-19I)----------I)----------19-19-17-19--------------------|
E|-0-0-0-----------0-3p0-0-10-X-10-0-0-0-0-0-----------0--17-17-17-18-18-19-|

G|--------------------------------------------------------------------------|
D|--------------------------------------------------------------------------|
A|--------19-19-17-19-------------------------19-19-17-19-------------------|
E|-0--0-0-----------0--0--X-3~0--3p0--0-0-0-0-----------0-0-0-0-5p0---3h5---|

G|--------------------------------------------------------------------------|
D|--------------------------------------------------------------------------|
A|--------19-19-17-19----------------------19-19-17-19----------------12-14-|
E|-0--0-0-----------0--0-X-3p0-3p0-0-0-0-0-----------0-18-17p5-0-15-12------|

Chorus
G|--------------------------------------------------------------------------|
D|--------17h19---------17h19--------------17h19-------17h19----------------|
A|--------------------------------------------------------------------------|
E|--15h17--------15h17--------15h17--15h17--------15h17--------15h17h15h17--|

G|--------------------------------------------------------------------------|
D|---------17h19--------17h19--------------17h19-------17h19----------------|
A|--------------------------------------------------------------------------|
E|---15h17--------15h17--------15h17-15h17--------15h17--------15h17p15h17--|

G|--------------------------------------------------------------------------|
D|--------17h19-------17h19--------------17h19-------17h19-------------BEND!|
A|--------------------------------------------------------------------17--17|
E|--15h17-------15h17-------15h17--15h17-------15h17-------15h17p15h17------|

G|--------------------------------------------------------------------------|
D|---------17h19--------17h19--------------17h19-------17h19----------------|
A|--------------------------------------------------------------------------|
E|---15h17--------15h17--------15h17-15h17--------15h17--------15h17p15h17--|

G|--------------------------------------------------------------------------|
D|-------17h19--------17h19-------------------------------------------------|
A|-----------------------------------------------19--19--19-------------19--|
E|-15h17--------15h17---------15h17-----------------------------------------|

G|--------------------------------------------------------------------------|
D|--------------------------------------------------------------------------|
A|--------19-19--17-19-------------------------19-19-17-19------------------|
E|-0--0-0------------0--0--X-3p0-3p0---0-0--0-0----------0---6p5-0-3p0-3p0--|

G|--------------------------------------------------------------------------|
D|--------------------------------------------------------------------------|
A|------19-19--17-19---------------------19-19-17-19----I)-U)---------------|
E|-0-0-0-----------0-3-0-3p0-3p0--0-0-0-0----------0-17-17-17-15-0-15-17h18-|

Verse2
G|--------------------------------------------------------------------------|
D|--------------------------------------------------------------------------|
A|-------19-19-17-19--------------------------19-19-17-19----I)(U-----------|
E|-0--0-0----------0--0--X-3p0-3p0--0---0--0-0----------0--0-5--5-10p0-10p0-|

G|--------------------------------------------------------------------------|
D|--------------------------------------------------------------------------|
A|-------19-19-17-19----------------------19-19-17-19----I)-U)--------------|
E|-0--0-0----------0-3-0-0-3p0-3p0-0-0-0-0----------0-17-17-17-17-0-17-18-19|

G|--------------------------------------------------------------------------|
D|--------------------------------------------------------------------------|
A|-------19-19-17-19--------------------------19-19-17-19-------------------|
E|-0-0-0-----------0-----0--X--3p0-3p0-0-0-0-0----------0---0-0--0-15p0-15p0|

G|--------------------------------------------------------------------------|
D|--------------------------------------------------------------------------|
A|------19-19-17-19--------------------19-19-17-19--------------------------|
E|-0-0-0----------0-0-X-3p0-3p0-0-0-0-0----------0-17-18-17-17-17-0-17-18-19|

Chorus2
G|--------------------------------------------------------------------------|
D|--------17h19---------17h19--------------17h19-------17h19----------------|
A|--------------------------------------------------------------------------|
E|--15h17--------15h17--------15h17--15h17--------15h17--------15h17h15h17--|

G|--------------------------------------------------------------------------|
D|--------17h19---------17h19--------------17h19-------17h19----------------|
A|--------------------------------------------------------------------------|
E|--15h17--------15h17--------15h17--15h17--------15h17--------15h17h15h17--|

G|--------------------------------------------------------------------------|
D|--------17h19---------17h19--------------17h19-------17h19----------------|
A|--------------------------------------------------------------------------|
E|--15h17--------15h17--------15h17--15h17--------15h17--------15h17h15h17--|

G|--------------------------------------------------------------------------|
D|--------17h19---------17h19--------------17h19-------17h19----I)---U)-----|
A|-------------------------------------------------------------17-----17----|
E|--15h17--------15h17--------15h17--15h17--------15h17---------------------|

G|--------------------------------------------------------------------------|
D|--------17h19---------17h19-----------------------------------------------|
A|-------------------------------------19-----19----19-----------19---------|
E|--15h17--------15h17--------15h17-----------------------------------------|

Interlude
  T  T P T P T T P T  T P   T  T T P T P T T P T   T T P  T
G|-------7---7------7--------7--------------7----7-------7----------7-------|
D|--------------------------------------------------------------------------|
A|-5---X---X---7-7----7h8-8--------7---5--X----X---7--7----7h8--8-8-----7---|
E|--------------------------------------------------------------------------|

  T  T P T P T T P T  T P   T  T T P T P T T P T   T T P  T
G|-------7---7------7--------7--------------7----7-------7----------7-------|
D|--------------------------------------------------------------------------|
A|-5---X---X---7-7----7h8-8--------7---5--X----X---7--7----7h8--8-8-----7---|
E|--------------------------------------------------------------------------|
   T T PTP T TP TP T T P T  TP PT T TP TPT TPT P TPT TP  T
G|--------------------------------------------------------------------------|
D|------8-8----8--8-----87-----7--7----7--7---7---8--8---8-----10-/-13----|
A|--------------------------------------------------------------------------|
E|--6-6--6--6-6--6--6-6----6/5-5--5--5-5--5-5-5-5/6--6-6-6----6--8-/-10----|

  T P T PT T TP T T P T   T   T T P T P T T  P T  T P T
G|-------------------------------------------7---7--------7--------7--------|
D|----7---7------7------7---------------------------------------------------|
A|-------------------------------------5--X----X---7--7-----7/8-8-----7-----|
E|-5----5--5--5-5--5-5-----5-----X------------------------------------------|

   T T P T P T T  P T  T P T   T  T P T P T  T P TP T T P
G|--------7---7--------7--------7-------------------------------------------|
D|---------------------------------------------8---8--------8---8--------8--|
A|--5--X----X---7--7-----7/8-8-----7----------------------------------------|
E|---------------------------------------6---6---6----6---6----6---6--6-----|

   T  T P T P T T P  T P T TP T   T P T P T  T P T P T  T P
G|--------------------------------------------------------------------------|
D|--------10---10-----10----10----10--------12---12------12----12--------12-|
A|--------------------------------------------------------------------------|
E|--6/8-8----8---8--8-----8----8-8---8/10-10---10--10--10---10----10--10----|

   T   T P T P T  T P T P T T T T T PT P T  T P T P T   T P
G|--------------------------------------------------------------------------|
D|-----------14--14-------14--14--------------8--8-------8---8---------8----|
A|--------------------------------------------------------------------------|
E|--10/12-12---12---12--12--12---12-X-X--6--6--6---6---6---6---6----6-------|

  T  TP T{ T T P TP T TP T T P T PT TP T P T T T T T T T    T
G|--------------------------------------------------------------------------|
D|------10--10-----10--10-----10-----7---7---7---7--------------------------|
A|--------------------------------------------------------------------------|
E|-6/8-8---8---8-8----8---8--8---5-5---5--5-5--5---5-5-5-5-7-7-7------7-----|

Pre-Verse
wah-wah I= toe down О= toe up
 I 0         I О           I О             I О
G|--------------------------------------------------------------------------|
D|--------17171717----------17171717------------17171717------------17171717|
A|19-------------19191919------------19191919--------------19191919--------|
E|--------------------------------------------------------------------------|
 I О         I О           I О             I О
G|--------------------------------------------------------------------------|
D|--------17171717----------17171717------------17171717------------17171717|
A|19191919--------19191919------------19191919--------------19191919--------|
E|--------------------------------------------------------------------------|

Verse
G|--------------------------------------------------------------------------|
D|--------------------------------------------------------------------------|
A|--------19-19--17-19-------------------------19-19-17-19------------------|
E|-0--0-0------------0--0--X-3p0-3p0---0-0--0-0----------0---6p5-0-5p0-3p0--|

G|--------------------------------------------------------------------------|
D|--------------------------------------------------------------------------|
A|-------19-19-17-19----------------------19-19-17-19----I)-U)--------------|
E|-0--0-0----------0-3-0-0-3p0-3p0-0-0-0-0----------0-17-17-17-15-0-17-18-19|

G|--------------------------------------------------------------------------|
D|--------------------------------------------------------------------------|
A|-------19-19-17-19----------------------19-19-17-19-----------------------|
E|-0--0-0----------0-3-0-0-3p0-3p0-0-0-0-0----------0----0----X--10 ---10--|

G|--------------------------------------------------------------------------|
D|--------------------------------------------------------------------------|
A|-------19-19-17-19----------------------19-19-17-19-----------------------|
E|-0--0-0----------0-3-0-0-3p0-3p0-0-0-0-0----------0-17171717171718181919--|

G|--------------------------------------------------------------------------|
D|--------------------------------------------------------------------------|
A|-------19-19-17-19----------------------19-19-17-19------------I)---------|
E|-0--0-0----------0-3-0-0-3p0-3p0-0-0-0-0----------0-----0--0--17-----17---|

G|--------------------------------------------------------------------------|
D|--------------------------------------------------------------------------|
A|-------19-19-17-19----------------------19-19-17-19-----------------------|
E|-0--0-0----------0-3-0-0-3p0-3p0-0-0-0-0----------0--15-17-17-17-15 -15-|

Оutrо
wah-wah I= toe down О= toe up
 I 0         I О           I О             I О
G|--------------------------------------------------------------------------|
D|--------17171717----------17171717------------17171717------------17171717|
A|19191919--------19191919------------19191919--------------19191919--------|
E|--------------------------------------------------------------------------|x2