Портал для гитаристов
gtars.ru

Red Hot Chili Peppers — Get Up And Jump

 Main Riffs
G|---3------XX-------XX-------XX-------XX--------|
D|-----------------------------------------------|
A|-----5--------3---------5--------3---------3h5-|
E|-----------------------------------------------|
 
G|---3------XX-------XX-------XX-------XX------------|
D|---------------------------------------------------|
A|-----5--------3---------5--------3-----------------|
E|-----------------------------------------------3h4-|

G|---3------XX-------XX-------XX-------XX-----------|
D|--------------------------------------------------|
A|-----5-------------------5------------------------|
E|---------------3--------------------3---------3h4-|

Verieations
G|---3------XX-------XX-------XX-------XX---------|
D|--------------------------3---------------------|
A|-----5--------3-------------------3---------3h5-|
E|------------------------------------------------|

G|---3------XX-------XX-------XX-------X----------|
D|------------------------------------------------|
A|-----5-------------------5------------------3h5-|
E|---------------3--------------------3h4---------| 

Red Hot Chili Peppers — Get Up And Jump

 Get Up & Jump
The Red Hot Chili Peppers
Red Hot Chili Peppers

e-|------|------------------|
B-|--14--|------------------|
G-|--14--|--9/6-6-----6-9---|  
D-|--14--|--------6/9-------|
A-|------|------------------|
E-|------|------------------|