Портал для гитаристов
gtars.ru

Red Hot Chili Peppers — Give It Away (bass)

 Intro: 
G|------------------------------------------------|
D|--Guitar Intro----------------------------------|
A|------------------------------------------------|
E|----------------------------------6/18-----5/11-|

G|------------12----------------------12-----------------|
D|------0/14--------------------0/14-------------------@-|
A|-0-x-------------x3--x3-0--x------------------x3-0---@-|
E|-------------------------------------------------------|
what you got you gotta give it to your mama
whay you got you gotta give it to your papa

Chorus:
G|--------------------|
D|------------------@-|
A|------------------@-|
E|-3/5--------3/5-----|
 t       t
give it away  give it away  give it away now

Guitar solos:
G|--------------------------------------------------|
D|------------------------------------------------@-|
A|-----------10-------------------10--------------@-|
E|-0x--0/12------0-3-0--x--0/12------------0-3-0----|

listen to the song you'll figure out the order.

Outro:
                              place this fast---|
G|------------12----------------------12-----14----12----12-10-|
D|------0/14--------------------0/14------14----14----10-------|
A|-0-x-------------x3--x3-0--x---------------------------------|
E|-------------------------------------------------------------|

G|------------12----------------------12------------------|
D|------0/14--------------------0/14--------------------@-|
A|-0-x-------------x3--x3-0--x-------------0-3----------@-|
E|----------------------------------------------0--3--0---|