Портал для гитаристов
gtars.ru

Red Hot Chili Peppers — Greeting Song

 The Greeting Song by the Red Hot Chili PePPeRs

from PePPeRs 01@aol.com



intro& most of the song



g----------------------------------

d----------------------------------

a-0-0-0-0------3-3-3-3-------

e-----------------------------------



then play this

g-----------------------------------

d-----------------------------------

a-0----3---0--0---0-0-0-0----

e------------------------------------



chorus

this is repeated 3 times then goes to the next line

g--------------------------------------

d-------0--2--2-3-4----------------

a--2-x-------------------------------

e--------------------------------------



g-------------------------------------------------

d--5h7-7-7-7--7-7-5h7-7-7-7---7-7-----

a-------------------------------------------------

e-------------------------------------------------

questions comments write me

PePPeRs 01@aol.com

real name scott b



==================================================