Портал для гитаристов
gtars.ru

Red Hot Chili Peppers — Higher Ground

 Higher Ground  
The Red Hot chili Peppers
The Album Mother's Milk,and What Hit's


h-hammer-on
p-pull-of
/-slide
b-bend
p.m.-palm mute

intro
e-|------------------------------------|---------------------------------|
B-|----12-----12--x--x--x--------------|-12-----12-----------------------|
G-|.---12-----12--x--x--x----14p12-----|-12-----12--------12---------12--|
D-|.---12-----12--x--x--x-----------14-|-12-----12--------12---------12--|
A-|-x------x------x--x--x--------------|-----x------12h14-----12h14------|
E-|------------------------------------|---------------------------------|

e-|------------------------------------|-15-15-15-15-15-15-15-15-15-15-15|
B-|--x--12----12--x--x--x------------x-|-15-15-15-15-15-15-15-15-15-15-15|
G-|--x--12----12--x--x--x--14p12-----x-|--------------------------------.|
D-|--x-----14-----x--x--x--------14----|--------------------------------.|
A-|---------------x--x--x--------------|---------------------------------|
E-|------------------------------------|---------------------------------|

rhythm fill

   p.m.--------|     p.m.--------|
e-|------------------------------------|---------------------------------|
B-|------------------------------------|---------------------------------|
G-|-------------4--6--------------4--6-|---------------------------------|
D-|-------------5--7--------------5--7-|------repeat a few times---------|
A-|-------------5--7--------------5--7-|---------------------------------|
E-|-0-0-0-0-0-0-3--5--0-0-0-0-0-0-3--5-|---------------------------------|


e-|--------------------------------------------|
B-|--9----9--x-x-x--------9----9--x-x-x--------|
G-|--9----9--x-x-x--9-----9----9--x-x-x--9-----|
D-|--9----9--x-x-x--9h11--9----9--x-x-x--9h11--|
A-|----11----x-x-x----------11----x-x-x--------|
E-|--------------------------------------------|


e-|---------------------15-15-15-15-15-15-15-15-|
B-|-9----9--x-x-x-------15-15-15-15-15-15-15-15-|
G-|-9----9--x-x-x--9----------------------------|
D-|-9----9--x-x-x--9h11-------------------------|
A-|---11----x-x-x-------------------------------|
E-|---------------------------------------------|


e-|----------------------------------------|--------------------------------|
B-|-17-x-17-x-17-17-17-x-------------------|--------------------------------|
G-|-17-x-17-x-17-17-17-x-------------------|--------------------------------|
D-|-17-x-17-x-17-17-17-x--5-x-5---5--5--5--|----repeat last measure once----|
A-|-15-x-15-x-15-15-15-x--5-x-5---5--5--5--|--------------------------------|
E-|-----------------------3-x-3---3--3--3--|--------------------------------|

e-|----------------------------------------|--------------------------------|
B-|----------------------------------------|--5-----------------------------|
G-|----------------------------------------|--5-----------------------------|
D-|--7-------------------------------------|--5-----------------------------|
A-|--7-------------------------------------|--3-----------------------------|
E-|--5-------------------------------------|--------------------------------|


e-|-----------------------|-----------------------|-----------------------|
B-|-----------------------|-----------------------|-----------------------|
G-|-9-9-9-9-12-9-12-14-12-|-9-9-9-9-12-9-12-14-12-|-9-9-12-9-12-14-12-9-9-|
D-|-9-9-9-9-12-9-12-14-12-|-9-9-9-9-12-9-12-14-12-|-9-9-12-9-12-14-12-9-9-|
A-|-----------------------|-----------------------|-----------------------|
E-|-----------------------|-----------------------|-----------------------|


At Woodsctock while Anthony Keidis is telling everyone to wave thier shirt
in the air just before playing Higher Ground this is what they play.

e-|--------------------------|------------------------|
B-|--------------------------|------------------------|
G-|.----4--3--4--3--4--4/11--|--11--10--10--11--3--4-.|
D-|.----4--3--4--3--4--4/11--|--11--10--10--11--3--4-.|
A-|-----2--1--2--1--2--2/9---|--9---8---8---8---1--2--|
E-|--0-----------------------|------------------------|

 

Red Hot Chili Peppers — Higher Ground

 Intro:
e|------7--7--x----------|---7--7--x--------------|
B|------8--8--x--10p8----|---8--8--x--------------|
G|------9--9--x-------9--|---9--9--x--------------|
D|-----------------------|-----------7p5---7p5----|
A|-----------------------|---------------7-----7--|
E|-----------------------|------------------------|
 
e|-7--7--x---------|-7-7-7-7-7--9--9--9--9--9--9--|
B|-8--8--x--10p8---|-8-8-8-8-8-10-10-10-10-10-10--|
G|-9--9--x-------9-|-9-9-9-9-9--9--9--9--9--9--9--| Play twice
D|-----------------|------------------------------|
A|-----------------|------------------------------|
E|-----------------|------------------------------|

Verse:
   E5       G5 A5   E5       G5 A5
e|----------------------|----------------------|
B|----------------------|----------------------|
G|----------------------|----------------------|
D|---------------5--7---|---------------5--7---|
A|---------------5--7---|---------------5--7---|
E|--0-0-0-0-0-0--3--5---|--0-0-0-0-0-0--3--5---|

People... keep on learnin'
Soldiers... keep on warrin'
   F#   A B  F#   A B   A      G
e|-------------------------|------------15-15-15-15-15///---|
B|-------------------------|------------15-15-15-15-15///---|
G|-------------------------|------------16-16-16-16-16///---|
D|----7-----9-----7-----9--|--7-7-7-7-7---------------------|
A|--9---9-7-9---9---9-7-9--|--7-7-7-7-7---------------------|
E|----------7-----------7--|--5-5-5-5-5---------------------|
World... keep on turnin'... Cause it won't be too long.

Repeat intro (the second part is a little different):
e|--7--7--x---------|-7--7--x---10-10-10--9--9--9--|
B|--8--8--x--10p8---|-8--8--x---10-10-10-10-10-10--|
G|--9--9--x-------9-|-9--9--x---11-11-11--9--9--9--| Play twice
D|------------------|------------------------------|
A|------------------|------------------------------|
E|------------------|------------------------------|

Repeat verse

In some parts a 2nd guitar plays:
   E5     G5 A5        E5   G5 A5 E5 G5 A5
e|----------------15-15-15--|----------------|--------15-15-15-|
B|----------------15-15-15--|----------------|--------15-15-15-|
G|--------------------------|----------------|-----------------|
D|--------------------------|----------------|-----------------|
A|--------------------------|----------------|-----------------|
E---------------------------|----------------|-----------------|
   Powers... keep on   lyin'
   While your people... keep on dyin'

   F#   A B  F#   A B   A      G
e|-------------------------|------------15-15-15-15-15///---|
B|-------------------------|------------15-15-15-15-15///---|
G|-------------------------|------------16-16-16-16-16///---|
D|----7-----9-----7-----9--|--7-7-7-7-7---------------------|
A|--9---9-7-9---9---9-7-9--|--7-7-7-7-7---------------------|
E|----------7-----------7--|--5-5-5-5-5---------------------|
World... keep on turnin'... cause it won't be too long

Chorus:
     A        E    G E    G
e|---------------------------------------|
B|---------------------------------------|
G|---------------------------------------| Play X 3
D|------7--7p5-7p5----------5---------5--|
A|------7----------7--------5---------5--|
E|------5------------0-0-0--3--0-0-0--3--|
 I'm so darn glad he let me try it again,
 'cause my last time on earth I lived a whole world of sin
 I'm so glad that I know more than I knew then

e|---------------------------------------------------|
B|----------------------x--x--x--x--x----------------|
G|-----11--------------14-14-14-14-14////------------|
D|-----11--------------14-14-14-14-14////------------|
A|------9--------------12-12-12-12-12////------------|
E|------9---------------x--x--x--x--x----------------|
 Gonna keep on tryin' till I reach the highest ground

Outro:
e|--0-0-0-0-0-3-5-3--|
B|--0-0-0-0-0-3-5-3--|
G|-------------------| repeat several times
D|-------------------|
A|-------------------|
E|-------------------| 
Аккорд E5Аккорд G5Аккорд A5Аккорд F#Аккорд AАккорд BАккорд GАккорд E