Портал для гитаристов
gtars.ru

Red Hot Chili Peppers — Higher Ground (bass)

 Intro
(the bass starts it up then the drums and the guitar come in.)
     He uses mostly octives.
G|---------------------------------------| I think you repeat
D|----2-------5-----7----2-------5-----7-| it Four times then,
A|---------------------------------------|
E|-0x---0-3-3---5-5---0x---0-3-3---5-5---|
 
G|------------------------------------------------------|
D|-----2-----------5--------7------2----2---------------|
A|----------------------------------------------3-------|
E|-0x-----0---3-3------5-5------0x---0x---0-3h5---3h5-3-|

G|---------------------------------|then you go to the intro
D|----2-------5-----7----2---------|and repeat god knows how
A|-------------------------5-3-----|many times. then ,
E|-0x---0-3-3---5-5---0x-------5-3-|

G|-----------------------------||
D|-----4--------7---------9----|| repeat (?)of x's
A|-----------------------------||
E|-2x------5-5------7-7--------||

G|-----7-----6------4-----3--||
D|---------------------------|| then you go back to the intro
A|-5-5---4-4---2-2----1-1----||
E|---------------------------||

G|-----------------------------------------------------------|
D|------------------5-----5----------------------------------|
A|--------------777---777--------------------555-----555-----|
E|-x5-5-3-5-3-5---------------x5-5-3-5-3-5-------5h7-----5h7-|

I'm not so sure.

G|---11h9--------------------------|Then you go back to the
D|--------x11h9------9h7-----------|intro and figure it out your
A|-9------------10h9-----9h7-5-7h8-|self on the order it goes.
E|---------------------------------|