Портал для гитаристов
gtars.ru

Red Hot Chili Peppers — I Could Have Lied Outro

 this is the outro solo for i could have lied.

e-----------------------------------------------------|
b-----12----12-15-12----------------------------------|
g--14----14----------14-14-12-14-12-14^-14^-14^^-12---|
d-----------------------------------------------------|
a-----------------------------------------------------|
e-----------------------------------------------------|

e-------------------------------------------------------|
b-------------------------------------------------------|
g-12-14-12-14-12-----------------12---------------------|
d----------------14-(14)^---12h14---14-12-14-14^--12h14-|
a-------------------------------------------------------|
e-------------------------------------------------------|

e-----------------------10----10------------------------|
b-------------------12-----12----12----12-10-8-10-10^---|
g-12-14^-12-12-14^--------------------------------------|
d-------------------------------------------------------|
a-------------------------------------------------------|
e-------------------------------------------------------|

e--------------------------------------------------------------|
b--8-10-8-8^---7-8-7-7^----------------------------------------|
g-----------------------4-7-4-4^------------4----4-------------|
d--------------------------------------7-7^---7^---7-5-7-5-----|
a--------------------------------7-10----------------------7/9-|
e--------------------------------------------------------------|