Портал для гитаристов
gtars.ru

Samhain — Archangel

 Band: Samhain
Song: Archangel

tabber: John Cukras
Email: riffreaper@yahoo.com

Tuning: Normal

Riff 1:
E--------------------------
B--------------------------
G--------------------------
D-7-------7------7-----2--7
A-5-------5------5--7--2--5
E-------------------5--0--- x's 2

Riff 2:
E--------------
B--------------
G--------------
D-7---4---5---7
A-5---2---3---5
E--------------  x's 2

Riff 1 x's 6

Riff 2 x's 2

Riff 1 x's 4

Riff 2 x's 2

Riff 1 x's 2

Riff 3:
E--------------------------------
B--------------------------------
G--------------------------------
D-------77777--------------------
A-55555-55555--------------777777
E-33333-------x's 3 then --555555

Riff 1 till end.

Outro: Trem pick, switches periodically.
E------------------------
B------------------------
G----------------------14 
D-12-13--12-13--12-13----
A------------------------
E------------------------ 

Samhain — Archangel

 BAND:Samhain
SONG:Archangel
ALBUM:Initium D  A  E  D  (2x)
 D  B  C  D  (2x)
 D  A  E  D  (6x)
 D  B  C  D  (2x)
 D  A  E  D  (4x)
 D  B  C  D  (2x)
 D  A  E  D  (4x)
 G  D        (3x)
 A [break]
 kick drum...
 D  A  E  D (10x)
 rock out... 
Аккорд DАккорд AАккорд EАккорд BАккорд CАккорд G

Samhain — Archangel

 Samhain
Archangel
Tabbed by: Keith McLamb
Email: br0kenself@godisdead.com
I'm almost positive that this is perfect.

INTRO
G:-----------------------------------------------
D:-----------------------------------------------
A:----5------5------5--------5----5---------5----
E:---------------------7--8-----------7--8-------

PART I
G:------------------
D:------------------
A:---5-------7---5--
E:-------5----------

PART II
G:---------------
D:---------------
A:---5--------5--
E:------7--8-----

PART III
G:---------
D:--5------
A:-------5-
E:---------


Intro
PART I    6x
PART II   2x
PART I    4x
PART II   2x
PART I    4x
PART III  3x
PART I    Repeat 'til End.