Портал для гитаристов
gtars.ru

Samhain — Descent

 Band: Samhain
Song: Descent

Tabber: John Cukras
AIM: embryocrusher

Tuning: Normal

Riff 1: Part A             Part B  | played on 2nd time
E----------------|--------------------------------------------------|
B----------------|--------------------------------------------------|
G----------------|-2------------------------------------------------|
D----------------|-2-4-5-7---------------7-6--------8-7---------9-8-|
A-4-3-4-5--------|-0-2-3-5 x's 2---5-7-8------6-8-9------7-9-10-----|
E-2-1-2-3 x's 4--|--------------------------------------------------|

Riff 2:
E---------------------------|
B---------------------------|
G---------------------------|
D---2-----1----4----2-------|
A-4----3----5----4--2-------|
E-2----1----3----2--0 x's 4-|

Riff 1: Part B

Riff 2 (under solo first two times)

Pause

Riff 2 (under more soloing) x's 6

Riff 1 (first half under solo) x's 3

If you tab that solo
please send it to me! 
Аккорд AАккорд B

Samhain — Descent

 			tabbed by amidemn138
			played by samhain
			song: descent

This doesn't represent the exact duration or 
amount each note is hit.  Listen to the cd, 
and you'll pick it up.  Any questions, feel 
free to write me at amidemn138@aol.com
---
Standard tuning 

				Descent
				=======

                                                                      
G -------------------------------------------
D -------------------------------------------
A --0-0------------1-------------------------
E ------4-4--3-3-3---------------------------
                                                                                

   each note is struck 16 times                                                                   
G ---------------------------------------------
D -----0--1--4---------------------------------
A --3------------------------------------------
E ---------------------------------------------
                                                                                

                                                                
G --------------------------------------------------
D --------------------------------------------------
A --3-3-3-3---------1-1-1-1-------------------------
E ----------3-3-3-3---------1-1-1-1--0-0-0-0--------
                                                                                


G ---------------------------
D ---------------------------
A ---------------------------
E --0-0-0--0-0-0--0-0-0------
 
Аккорд GАккорд DАккорд AАккорд E