Портал для гитаристов
gtars.ru

Samhain — Halloween Ii

 Band: Samhain
Song: Halloween II

Tabber: John Cukras
Email: riffreaper@yahoo.com

Tuning: Normal

Riff 1:
E-------------
B-------------
G-------------
D----------12~
A----7--------
E-55-5-55-----
pm..   ..

Riff 2:
E--------
B--------
G--------
D-222----
A-222-333  x's 8
E-000-111

Riff 1

Riff 2 x's 8

Riff 3:
E--------------------------------
B--------------------------------
G--------------------------------
D--------------------------------
A-7--5--7--5-----5----5------7--5
E-5--3--5--3--33-3-33-3-333--5--3
pm            ..   ..   ...

Riff 1

Riff 3

Riff 2 
Аккорд E-55-5-55-----Аккорд E--------Аккорд B--------Аккорд G--------Аккорд D-222----