Портал для гитаристов
gtars.ru

Santa Esmeralda — Don’t Let Me Be Misunderstood

 Intro riff repeats itself through the song 
It starts it off after the clapping castinet things:
Am G F E (-> Down Up Up Up)
Then breaks into flamenco style fast! 

 ^same lick but quieter
[E------------------------------0-1-4------0h1h0--0--1h0-0--------------
B--------------------------1-4-----------------3-------3-----6h5h3h5---
G-------------------1-2--4---------------------------------------------
D-------------0-2-3----------------------------------------------------
A-------0-2-3----------------------------------------------------------
E--0-1-4---------------------------------------------------------------

E-------5-7-8-8---7-5--------------------------------------------------
B-----5----------------8-6h5-------5-----------------------------------
G----------------------------7-------7h5h7-----------------------------
D----------------------------------------------------------------------
A----------------------------------------------------------------------
E----------------------------------------------------------------------

E-----12-13h12-----------------------------------------------------------------------------------------------
B--------------15--13------15h13h12--------------------------------------------------------------------------
G-----------------------------------14---14h13---------------------------------------------------------------
D----------------------------------------------15h14h12------------------------------------------------------
A-------------------------------------------------------15h14h12----11----14--11---12-11-12-11-12-11-12-11-12-11...
E------------------------------------------------------------------------------------------------------------]

This repeats itself through the sing. the funky electric
 Am                      G          F           E
[E------------------------------------------------------------------------------------------------------------
B---------10-10h9h10h9h10910----10h9h10-12-13b-12--------------10-10h9h10h9h10910---10-9---------------------
G----------------------------------------------------------------------------------------9-------------------
D------------------------------------------------------------------------------------------------------------
A------------------------------------------------------------------------------------------------------------
E------------------------------------------------------------------------------------------------------------]

This part starts where it sounds
Cause I'm just a soul whos intentions are clear ...
Am  Am  C   C  F F
let each strum ring until next chord
Am       G         F        G
if...    edgy... want..   know
Am       G         F        E
that...  meant...  out...  you
Am       G           F         G
Life...  problems... I've...   share
Am       G         F        E
that...  never...  do...    love

back to playing Am G F E jazzy funk style 
Аккорд AmАккорд GАккорд FАккорд EАккорд C