Портал для гитаристов
gtars.ru

Sex Pistols — Anarchy in the UK

 Intro: 
 G F Em     D C  
      Right   now  
 
Verse 1: 
 C             F Em  
I'm an antichrist  
 C             F Em  
I am an anrchist  
 C                                       F Em  
Don't know what I want but I know how to get it  
 C?
I wanna destroy passers-by  
 
Chorus 1: 
      G       F Em Dm    C  F Em  
'cos I wanna be   Anarchy  
 C           G  
No dog's body 
 
Verse 2: 
Anarchy for the U.К.  
It's coming sometime and maybe  
Give the wrong time Stop a traffic line 
Your future dream is a shopping scheme 
 
Chorus 2: 
cause I wanna be   Anarchy              
In the city 
 
Bridge: Dm7 Em7 }x3 Dm7 G  
 
Verse 3: 
How many ways to get what you want  
I use the best, I use the rest  
I use the enemy.  
I use Anarchy 
 
Chorus 3: 
'Cause I wanna be Anarchy  
It's the only way to be 
 
Bridge 2: D G }x4 
 
Verse 4: 
Is it the M.P.L.А.?  
or Is it the U.D.А.?  
or Is it the I.R.А.?  
I thought it was the U.К. 
 
Chorus 4: 
    G      F   Em Dm    C   F Em         
Or just another    country 
 C  
Another council tenancy 
 G       F Em  Dm    C   F Em C  
I wanna be an anarchist       Or what a name 
 G       F Em  Dm    C   F Em C  
I wanna be an anarchist       Or what a name 
     G       F Em Dm     C    F Em C          
And I wanna be   an anarchist get pissed 
    C  
destroy. 
Аккорд GАккорд FАккорд EmАккорд DАккорд CАккорд DmАккорд Dm7Аккорд Em7

Sex Pistols — Anarchy In The Uk

 Song: Anarchy In The UK
Band: Sex Pistols
Tabbed by: Kris Morton

This is my own interpretation of the song - the way I play it, not the way done by 
Sid Vicious on Never Mind The Bollocks.

INTRO
G|--------------------------------------------|
D|-55555555-33333333-222222222-00000000000----|
A|--------------------------------------------|
E|--------------------------------------------|

       'Right Now . . . hahahahaha . . .'

VERSE
G|------------------------------|
D|--------------3-2-------------|    Play as many times as
A|-333333333333-----------------|        necessary
E|------------------------------|

CHROUS
G|-----------------------------------------------|
D|-555555555555555-33333333-222222-0000000000----|
A|-----------------------------------------------|
E|-----------------------------------------------|

	'Cause I...wanna be...anarchy...'

END OF CHORUS
G|------------------------------|
D|------------------------------|
A|--00000000000--3-2------------|
E|------------------------------|

VERSE

CHORUS

THEN WHEN GUITAR DOES SOLO PLAY THIS:

G|--------------------------------------|
D|-----------------33333333-------------|
A|--33333333333333----------33333333----|	
E|--------------------------------------|

VERSE

CHORUS

END 

Sex Pistols — Anarchy in the U.K.

 Intro:

G F Em     D C 
      Right   now 

Verse 1:

C                F Em
I'm an antichrist 
C               F Em
I am an anrchist 
C                                         F Em
Don't know what I want but I know how to get it 
C
I wanna destroy passers-by 

Chorus 1:

     G       F Em Dm    C  F Em
'cos I wanna be   Anarchy 
C           G
No dog's body

Verse 2:

C                 F Em
Anarchy for the U.К. 
C                          F Em
It's coming sometime and maybe 
C                                  F Em                     
Give the wrong time Stop a traffic line
     C                                 
Your future dream is a shopping scheme

Chorus 2:

      G       F Em Dm    C  F Em
cause I wanna be   Anarchy
C                 
In the city

Bridge (Guitar Solo, i cant figure out):

Dm7 Em7 x3
Dm7 G

Verse 3:

    C                         F Em
How many ways to get what you want 
C                          F Em      
I use the best, I use the rest 
C             F Em  
I use the enemy. 
C          
I use Anarchy

Chorus 3:

       G       F Em Dm    C  F Em 
'Cause I wanna be   Anarchy 
C
It's the only way to be

Bridge 2 (Guitar solo too):

D G F#m x4

Verse 4:

C                  F Em
Is it the M.P.L.A.? 
   C                 F Em
or Is it the U.D.A.? 
   C                 F Em
or Is it the I.R.A.? 
C                         
I thought it was the U.К.

Chorus 4:

   G      F   Em Dm    C   F Em       
Or just another    country
C 
Another council tenancy
G       F Em  Dm    C   F Em C
I wanna be an anarchist       Or what a name
G       F Em  Dm    C   F Em C
I wanna be an anarchist       Or what a name
    G       F Em Dm     C    F Em C        
And I wanna be   an anarchist get pissed
   C
destroy. 
Аккорд GАккорд FАккорд EmАккорд DАккорд CАккорд DmАккорд Dm7Аккорд Em7Аккорд F#mАккорд A

Sex Pistols — Anarchy In The U.K.

 Intro: B(Vll) A#  A G# G 
       Right! now ha, ha 
 
Проигрыш: G C E }x4
 
Verse: 
G             C   E 
 I am an anti-Christ 
G             C  E 
 I am an anarchist. 
G 
 dont Кnоw what i want 
                   C   E 
 but i know how to get it. 
G                      C E 
 I wanna destroy passer by 
 
Chorus: 
    C       E  G F# G   C E 
 Cos I wanna be anarchy. 
 
 no dogs body 
 
Verse: 
Anarchy for the U. К. 
is coming sometime maybe. 
I?ll give the wrong time, stop a traffic line. 
Your future dream is a shopping scheme 
 
Chorus: 
 Cos I wanna be anarchy. 
 In the city! 
 
Verse: 
А many ways to get what you want. 
I use the best, I use the rest. 
I use the  enemy. 
I use anarchy 
 
Chorus: 
Cos I wanna be anarchy. 
It?s the only way to be! 
 
Verse: 
is this the M. P.L.А 
or is this the U.D.А. 
or is this the I.R.А? 
i thought it was the U.К. 
 
Chorus: 
Or just another country! 
Another council tenacy. 
 
I wanna be an anarchist 
(oh what a name) 
And i wanna be an anarchist 
 (i get pssed destroy) 
Аккорд A#Аккорд AАккорд G#Аккорд GАккорд CАккорд EАккорд F#Аккорд D

Sex Pistols — Anarchy In The Uk

 Pre-verse 
G-------------------------------------------------------------------
D-------------------------------------------------------------------
A--3-3-0-3-3-3-0-3-3-3-0-3-3-3-0-3-3-3-0-3-3-3-0-3-3-3-0-3-3-3-0-3--
E-------------------------------------------------------------------
Verse
G-----------------------------------
D-----------------------------------                            x3
A--3-3-0-3-3-3-0-3-3-3-0-3-8-8-7-7--
E-----------------------------------
G-----------------------------------
D-----------------------------------
A--3-3-0-3-3-3-0-3-3-3-0-3-3-3-0-3--
E-----------------------------------
Chorus
G-------------------------------------------------------------------
D--5-5-5-5-5-5-5-5-5-5-5-5-5-5-5-5-3-3-3-3-3-3-3-3-2-2-2-2-0-0-0-0--
A-------------------------------------------------------------------
E-------------------------------------------------------------------
G-------------------------------------------------------------------
D-------------------------------------------------------------------
A--3-3-0-3-3-3-0-3-3-3-0-3-8-8-7-7-3-3-0-3-3-3-0-3-3-3-0-3-3-3-0-3--
E-------------------------------------------------------------------
Guitar Solo
G-------------------------------------------------------------------
D-------------------------------------------------------------------
A--5-5-5-5-5-5-5-5-7-7-7-7-7-7-7-7-5-5-5-5-5-5-5-5-7-7-7-7-7-7-7-7--
E-------------------------------------------------------------------
G-------------------------------------------------------------------
D--------------------------------------------------5-5-5-5-5-5-5-5--
A--5-5-5-5-5-5-5-5-7-7-7-7-7-7-7-7-5-5-5-5-5-5-5-5------------------
E-------------------------------------------------------------------
G---------------------------------------------------
D--5-5-5-5-5-5-5-5----------------------------------
A---------------------------------------------------
E------------------3-3-3-3-3-3-3-3-3-3-3-3-3-3-3-3--
Bridge 
G-------------------------------------
D-------------------------------------                             x4
A--5-5-5-5-5-5-5-5-5-5-5-5-10-10-9-9--
E-------------------------------------