Портал для гитаристов
gtars.ru

Simple Plan — Addicted

 Intro:  
e|----9----14-13-----| 
B|--9---9--------14--| 
G|-------------------| 
D|-------------------|  x4 
A|-------------------| 
E|-------------------| 
 
     C#  
e|----9----14-13-----| 
B|--9---9--------14--| 
G|-------------------| 
D|-------------------|  x2 
A|-------------------| 
E|-------------------| 
 
     F#  
e|----9----14-13-----| 
B|--9---9--------14--| 
G|-------------------| 
D|-------------------| 
A|-------------------| 
E|-------------------| 
 
     G#  
e|----9----14-13-----| 
B|--9---9--------14--| 
G|-------------------| 
D|-------------------| 
A|-------------------| 
E|-------------------| 
 
     C#  
e|----9----14-13-----| 
B|--9---9--------14--| 
G|-------------------| 
D|-------------------|  x2 
A|-------------------| 
E|-------------------| 
 
     F#  
e|----9----14-13-----| 
B|--9---9--------14--| 
G|-------------------| 
D|-------------------| 
A|-------------------| 
E|-------------------| 
 
     G#  
e|----9----14-13-----| 
B|--9---9--------14--| 
G|-------------------| 
D|-------------------| 
A|-------------------| 
E|-------------------| 
 
Verse 1:  
 C#  
I heard you're doing okay 
                    F#  
But I want you to know 
 F#  
I'm addict 
 F#  
I'm addicted to you 
 C#  
I can't pretend I don't care 
                            F#  
When you don't think about me 
 F#  
Do you think I deserve this? 
 
Pre-Chorus:  
     D#m                Fm  
I tried to make you happy 
          F#       G#  
but you left anyway 

Chorus:  
       C#  
I'm trying to forget that 
        F#           G#  
I'm addicted to you 
        C#  
But I want it and I need it 
        F#         G#  
I'm addicted to you 
           D#m  
Now it's over 
          G#  
Can't forget what you said 
        D#m            G#  
And I never wanna do this again 
      F#  
Heartbreaker 
       C#   F#  G#  
Heartbreaker 
       C#  F#  G#  
Heartbreaker 
 
Verse 2:  
 C#  
Since the day I met you 
                            F#  
And after all we've been through 
 F#  
I'm still dick 
 F#  
I'm addicted to you 
 C#  
I think you know that it's true 
                              F#  
I'd run a thousand miles to get you 
 F#  
Do you think I deserve this?  
 
Pre-Chorus:  
   D#m                   Fm  
I tried to make you happy 
        F#            G#  
I did all that I could 
 D#m  
Just to keep you 
          F#       G#  
But you left anyway 
 
Chorus:  
       C#  
I'm trying to forget that 
        F#         G#  
I'm addicted to you 
        C#  
But I want it and I need it 
        F#         G#  
I'm addicted to you 
           D#m  
Now it's over 
          G#  
Can't forget what you said 
        D#m            G#  
And I never wanna do this again 
      F#   C#  D#m C#  
Heartbreaker 
      F#   C#  D#m  G#  
Heartbreaker 
 
Bridge:  
 F#     C#        D#m     G#  
How long will I be waiting? 
 F#     C#        D#m  G#  
Until the end of time 
 F#        Fm         D#m      C#  
I don't know why I'm still waiting 
 D#m       Fm       F#  
I can't make you mine 
 
Solo: F#  F#  G#  G# }x2
      D#m  Fm  F#  G#   
 
Chorus: 
       C#  
I'm trying to forget that 
        F#       G#  
I'm addicted to you 
        C#  
But I want it and I need it 
        F#       G#  
I'm addicted to you  
 
       C#  
I'm trying to forget that 
        F#       G#  
I'm addicted to you 
        C#  
But I want it and I need it 
        F#        G#  
I'm addicted to you 
           D#m  
Now it's over 
          G#  
Can't forget what you said 
        D#m            G#  
And I never wanna do this again 
      F#  
Heartbreaker 
      C#               F#       G#  
Heartbreaker (I'm addicted to you) 
      C#               F#       G#  
Heartbreaker (I'm addicted to you) 
      C#               F#       G#  
Heartbreaker (I'm addicted to you) 
      C#               F#       G#  
Heartbreaker (I'm addicted to you) 
      C#  
Heartbreaker 
Аккорд C#Аккорд F#Аккорд G#Аккорд D#mАккорд Fm

Simple Plan — Addicted

 Song : Addicted
Band : Simple Plan
Tabbed By : Diamond Jerry (Raptureboy182@yahoo.com)

Tuning : Down 1/2 step (D#-G#-C#-F#-A#-D#) 
	 (Not Drop-D!!!)

------------------------------------------------------------------------------

[Intro]  

 (Guitar1) - Harmonic -
d#|----10--15-14-10----10---15-14-10-----10---15-14-10-----10---15-14-10------|
A#|-10---10----------10---10-----------10---10-----------10---10---------(10~)|
F#|---------------------------------------------------------------------------|  3x
C#|---------------------------------------------------------------------------|
G#|---------------------------------------------------------------------------|
D#|---------------------------------------------------------------------------|

 (Guitar2)  
d#|--2-2-2-2-2-2-2---3-3-3-3----0-0-0-0-----------|----2~---------------------|
A#|--3-3-3-3-3-3-3---3-3-3-3----2-2-2-2-----------|----3~---------------------|
F#|--2-2-2-2-2-2-2---0-0-0-0----2-2-2-2-----------|----2~---(Let ring)--------|  
C#|--0-0-0-0-0-0-0---0-0-0-0----2-2-2-2----(2x)---|----0~---------------------|
G#|--0-0-0-0-0-0-0---2-2-2-2----0-0-0-0-----------|----0~---------------------|
D#|------------------3-3-3-3----------------------|---------------------------|



[Verse] 

 (Guitar2)
d#|---------------------------------------------------------|
A#|--^^^^--^^^^--^^^^--^^^^---------------------------------|
F#|--7777--7777--7777--7777-----^^^^--^^^^--^^^^--^^^^------|
C#|--7777--7777--7777--7777-----5555--5555--5555--5555------|
G#|--5555--5555--5555--5555-----5555--5555--5555--5555------|
D#|-----------------------------3333--3333--3333--3333------|


[Pre-chorus]

 (Guitar1)
d#|-----------------------------------------|
A#|-----------------------------------------|
F#|-----------------------------------------|  
C#|--2--2-2----4--4-4----55555-----7--------|
G#|--2--2-2----4--4-4----55555-----7--------|
D#|--0--0-0----2--2-2----33333-----5--------|

 (Guitar2)
d#|--0--0-0----3--3-3----33333-----0--------|
A#|--0--0-0----3--3-3----33333-----2--------|
F#|--0--0-0----0--0-0----00000-----2--------|  
C#|--2--2-2----0--0-0----00000-----2--------|
G#|--2--2-2----0--0-0----22222-----0--------|
D#|--0--0-0----2--2-2----33333--------------|
	

[Chorus1]

 (Guitar1)
d#|------------------------------------------|
A#|------------------------------------------|
F#|---7777-7777--------7---------------------|
C#|---7777-7777---55---7--7777----(2x)-------|
G#|---5555-5555---55---5--7777---------------|
D#|---------------33------5555---------------|
	
 (Guitar2)
d#|--2-2-2-2--2-2-2-2---3-3---2---0-0-0-0----|
A#|--3-3-3-3--3-3-3-3---3-3---3---2-2-2-2----|
F#|--2-2-2-2--2-2-2-2---0-0---2---2-2-2-2----|  (2x)
C#|--0-0-0-0--0-0-0-0---0-0---0---2-2-2-2----|
G#|--0-0-0-0--0-0-0-0---2-2---0---0-0-0-0----|
D#|---------------------3-3------------------|
	

[Chorus2]

 (Guitar1)
d#|---------------------------------------------------------------------------|
A#|---------------------------------------------------------------------------|
F#|---------------------------------------------------------------------------|
C#|-------------2222-2222--7777-7777-----------2222-2222---7-7-7-7----5~------|
G#|-------------2222-2222--7777-7777-----------2222-2222---7-7-7-7----5~------|
D#|---(5-3-0)---0000-0000--5555-5555--(5-3-0)--0000-0000---5-5-5-5----3~------|

 (Guitar2)
d#|--0-0-0-0-0---0-0-0-0-----0-0-0-0-0---0-0-0-0------3~----------------------|
A#|--0-0-0-0-0---2-2-2-2-----0-0-0-0-0---2-2-2-2------3~----------------------|
F#|--0-0-0-0-0---2-2-2-2-----0-0-0-0-0---2-2-2-2------0~----------------------|  
C#|--2-2-2-2-2---2-2-2-2-----2-2-2-2-2---2-2-2-2------0~----------------------|
G#|--2-2-2-2-2---0-0-0-0-----2-2-2-2-2---0-0-0-0------2~----------------------|
D#|--0-0-0-0-0---------------0-0-0-0-0----------------3~----------------------|
	


-repeat Intro-



[Verse2]

 (Guitar2)
d#|----------------------------------------------------------------------------|
A#|---------------------------^^^^--^^^^--^^^^--^^^^---------------------------|
F#|-^^^^--^^^^--^^^^--^^^^----7777--7777--7777--7777----^^^^--^^^^--^^^^--^^^^-|
C#|-5555--5555--5555--5555----7777--7777--7777--7777----5555--5555--5555--5555-|
G#|-5555--5555--5555--5555----5555--5555--5555--5555----5555--5555--5555--5555-|
D#|-3333--3333--3333--3333------------------------------3333--3333--3333--3333-|


[Pre-chorus]

 (Guitar1)
d#|------------------------------------------|
A#|------------------------------------------|
F#|------------------------------------------|  
C#|--2--2-2----4--4-4----5--5-5-----7--7-7---|
G#|--2--2-2----4--4-4----5--5-5-----7--7-7---|
D#|--0--0-0----2--2-2----3--3-3-----5--5-5---|

d#|------------------------------------------|
A#|------------------------------------------|
F#|------------------------------------------|  
C#|-----------2--2-2---55555---7777777-------|
G#|-----------2--2-2---55555---7777777-------|
D#|--(5-3-0)--0--0-0---33333---5555555-------|


 (Guitar2)
d#|--0--0-0----3--3-3----3--3-3-----0--0-0---|
A#|--0--0-0----3--3-3----3--3-3-----2--2-2---|
F#|--0--0-0----0--0-0----0--0-0-----2--2-2---|  
C#|--2--2-2----0--0-0----0--0-0-----2--2-2---|
G#|--2--2-2----0--0-0----2--2-2-----0--0-0---|
D#|--0--0-0----2--2-2----3--3-3--------------|

d#|--0--0-0----3--3-3-----000000-------------|
A#|--0--0-0----3--3-3-----222222-------------|
F#|--0--0-0----0--0-0-----222222-------------|  
C#|--2--2-2----0--0-0-----222222-------------|
G#|--2--2-2----2--2-2-----000000-------------|
D#|--0--0-0----3--3-3------------------------|
	

-repeat Chorus1 & Chorus2-

------------------------------------------------------------------------------
[Bridge] Clean guitar

 (Guitar1)
d#|--0-0--2-2----3-3--3-3--0-0--0-0-----3-3--3-3--0-0--2-2--------------------|
A#|--0-0--3-3----3-3--3-3--0-0--2-2-----3-3--3-3--0-0--3-3--------------------|
F#|--0-0--2-2----0-0--0-0--0-0--2-2-----0-0--0-0--0-0--2-2--------------------|  
C#|--2-2--0-0----0-0--0-0--2-2--2-2-----0-0--0-0--2-2--0-0--------------------|
G#|--2-2--0-0----2-2--0-0--2-2--0-0-----2-2--0-0--2-2--0-0--------------------|
D#|--0-0---------3-3--2-2--0-0----------3-3--2-2--0-0-------------------------|
	
d#|--3-3--3-3--0-0---------------------|
A#|--3-3--3-3--0-0---2-2-x--2-2-x------|
F#|--0-0--0-0--0-0---2-2-x--2-2-x------|  
C#|--0-0--0-0--2-2---2-2-x--2-2-x------|
G#|--2-2--0-0--2-2---0-0-x--0-0-x------|
D#|--3-3--2-2--0-0---------------------|
	


[Before Solo Part]

 (Guitar1)				    
d#|---------------------------------------|
A#|---------------------------------------|
F#|--------------------7777---------------|
C#|--5555--5555--2222--7777----2222--4444-|
G#|--5555--5555--2222--5555----2222--4444-|
D#|--3333--2222--0000----------0000--2222-|

 (Guitar2)						   [Solo Part]
d#|--3333--3333--0000--2222----0000--3333--------|-3333--3333---0000--0000--------|
A#|--3333--3333--0000--3333----0000--3333--------|-3333--3333---2222--2222--------|
F#|--0000--0000--0000--2222----0000--0000---then-|-0000--0000---2222--2222--------|  
C#|--0000--0000--2222--0000----2222--0000--------|-0000--0000---2222--2222--(2x)--|
G#|--2222--0000--2222--0000----2222--0000--------|-2222--2222---0000--0000--------|
D#|--3333--2222--0000----------0000--2222--------|-3333--3333---------------------|


[Solo Part]

 (Guitar1)
d#|---------------------------------------------------------------------------------|
A#|---------------------------------------------------------------------------------|
F#|-7-7-7--/9-9-9--/11-11-11--/12-12-12----7-7-7--/9-9-9--/12-12-12--/11-11-11------|
C#|-x-x-x--/x-x-x--/-x--x--x--/-x--x--x----x-x-x--/x-x-x--/-x--x--x--/-x--x--x--(2x)|
G#|-5-5-5--/7-7-7--/-9--9--9--/10-10-10----5-5-5--/7-7-7--/10-10-10--/-9--9--9------|
D#|---------------------------------------------------------------------------------|


[Solo Part2] Not sure about this part but i think it's pretty close...  
 	     After this part...Jeff played some background solo (i can't figure it out)
 (Guitar1)
d#|---------------------------------------------------------------------------------|
A#|--------------------------------------------------------------------^^-^^--------|
F#|-9-9-9-/11-11-11-/12-12-12-/14-14-14-12-12-12-/14-14-14-/16-16-16-/18-18--19~---|  
C#|-x-x-x-/-x--x--x-/-x--x--x-/-x--x--x--x--x--x-/-x--x--x-/-x--x--x-/-x--x---x----|
G#|-7-7-7-/-9--9--9-/10-10-10-/12-12-12-10-10-10-/12-12-12-/14-14-14-/16-16--17~---|
D#|---------------------------------------------------------------------------------|

 (Guitar2)
d#|----00000----33333----33333---0000---------|
A#|----00000----33333----33333---2222--X-X----|
F#|----00000----00000----00000---2222--X-X----|  
C#|----22222----00000----00000---2222--X-X----|
G#|----22222----00000----22222---0000--X-X----|
D#|----00000----22222----33333----------------|


-repeat chorus1 & chorus2-

the rest u should know!!!!

------------------------------------------------------------------------------
Any comments or corrections,just mail me to Raptureboy182@yahoo.com/ICQ #115343571 
Аккорд A#-D#

Simple Plan — Addicted

 Simple plan – Addicted

Tabbed by Geff S. ©
This is the first Addicted tab and i spend a lot of time on it so please dont copy it. 
Or if you do, put my name on it. Thanks. Im not sure about the Pre-Chorus so i let u 
kids find it alone. If u have it e-mail it thanks. Any questions or corrections: 
dude_wheres_geff@hotmail.com
 
(m) = muted
Black = Lead Guitar
Red = Second Guitar

   Intro
E----9---14-13-9---9---14-13-9---9---14-13-9---9---14-13-9-----||
B--9---9---------9---9---------9---9---------9---9-------------||
G--------------------------------------------------------------||
D--------------------------------------------------------------||  
A--------------------------------------------------------------||
E--------------------------------------------------------------||

  Intro
E----9---14-13-9---9---14-13-9---9---14-13-9---9---14-13-9-----||
B--9---9---------9---9---------9---9---------9---9---------9---||
G--6-6-6-6-6-6-6-6-6-6-6-6-6-6--------------------------------6||
D--6-6-6-6-6-6-6-6-6-6-6-6-6-6-4-4-4-4-4-4-4-6-6-6-6-6-6-6-6--6||
A—-4-4-4-4-4-4-4-4-4-4-4-4-4-4-4-4-4-4-4-4-4-6-6-6-6-6-6-6-6--4||
E------------------------------2-2-2-2-2-2-2-4-4-4-4-4-4-4-4---||

  Riff
E--------------------------------------------------------------||
B--------------------------------------------------------------||
G--666-6--666-6--666-6--666-6----------------------------------||
D—-666-6--666-6--666-6--666-6--444-4--444-4--444-4--444-4------||
A--444-4--444-4--444-4--444-4--444-4--222-2--222-2--222-2------||
E------------------------------222-2--222-2--222-2--222-2------||
   (m)    (m)    (m)    (m)    (m)    (m)    (m)    (m)

  Chorus
E----------------------------------------------------------------||
B----------------------------------------------------------------||
G--6666666-------6-----------------------------------------------||
D--6666666--444--6--6--------------------------------------------||
A--4444444--444--4--6--------------------------------------------||
E-----------222-----4--------------------------------------------|| 

Simple Plan — Addicted

 This song is played with the E tuned a half-step down.

Intro: Play 2x

G ----------------------------|
D ----------------------------|
A -444444444444---------------|
Eb--------------333333-555555-|

Verse:

G ---------------------------------------------------|
D ---------------------------------------------------|
A -444444444444444444444444--------------------------|
Eb--------------------------33333333333333333333333--|

G -----------------------------------------------------|
D --------------------111-333--------------------------|
A -444444444444444444----------------------------------|
Eb----------------------------33333333333333333333333--|

Pre-chorus:

G -------------------|
D -------------------|
A -------------------|
Eb-0000-2222-3333-5--|

Chorus is Intro played 2x

After Chorus (Now Its Over...)

G ----------------------2x-|----
D -------------------------|----
A ----------44-------------|----
Eb-00-22-33----55555555----|-3--

Intro 2x

Verse

Pre-chorus 2:

G --------------------------------------------|
D --------------------------------------------|
A --------------------------------------------|
Eb-0000-2222-3333-5555-000000-222222-333333-5-|

Intro 2x

After Chorus

Bridge (i don't know why im still waiting...):

G ---------------------------------------------------------------------|
D ---------------------------------------------------------------------|
A ----------------------444444-----------------------------------------|
Eb-333333-222222-000000--------000000-222222-333333333333-555555555555-|

G -------------------------------------------------------|
D -------------------------------------------------------|
A -------------------------------------------------------|
Eb-333333333333-555555555555-000000-222222-333333-555555-|

Intro 4x

After Chorus

Intro 4x

Last Note:

G ---------------|
D ---------------|
A --4-(let ring)-|
Eb---------------| 
Аккорд EАккорд GАккорд DАккорд A