Портал для гитаристов
gtars.ru

Skankin’ Pickle — 20 Nothing

 Intro:         REPEAT 4 TIMES
[e----------------------------------------------------------
B----------------------------------------------------------
G-------5--------------------------------------------------
D---3---5---5----------------------------------------------
A---3---3---5----------------------------------------------
E---1-------3----3---3---3--3---3--------------------------

VERSE:		
e----------------------------------------------------------
B----------------------------------------------------------
G----------------------------------------------------------
D---5-5---5-X-5---2-2---3-3--------------------------------
A---5-5---3-X-3---2-2---3-3--------------------------------
E---3-3-----------0-0---1-1--------------------------------]

BRIDGE: REPEAT Intro