Портал для гитаристов
gtars.ru

Slapstick — There’s a Metal Head in the Parking Lot

 Intro (clean)
-----------------------------------------------
---------------------9--9--9--9--7--7--5--5----
---------------------9--9--9--9--8--8--6--6---- } repeat 3.5x
---------------------9--9--9--9--9--9--7--7----
-------6-7-9-7---------------------------------
--7-9------------------------------------------

(with distortion)
----------------------------------------------------------------------------------
------------------9-9-9-9--------9-9--10-9-10-9------------------------10-9--10-9-
------------------9-9-9-9--------9-9---9--9--9-9--9-9-9---------9-9----9-9---9-9-- } repeat 1x
------------------9-9-9-9--------9-9---9--9--9-9--9-9-9---------9-9----9-9---9-9--
-9-9-9--7-7-7--7-7-7-7--7-7--7-7---7--7--7-7--9-9-9---------9-9-------------------
-7-7-7--5-5-5----------------------------------------7-7-7--7-7--7-7--------------

verse
"Got done with just a dollar fifty....."
-------------------------------------------------------------------------------
-------------------------------------------------------------------------------
------------------------------------------------------------------------------- } repeat 1x
---9-9-9-9-9-9-9-9-9-9-9-9-9-9-9-9---------------------------------------------
---7-7-7-7-7-7-7-7-7-7-7-7-7-7-7-7-----7-7-7-7-7-7-7-7-7-7-7-7-7-7-7-7---------
---------------------------------------5-5-5-5-5-5-5-5-5-5-5-5-5-5-5-5---------

pre-chorus
"Wasted time, Wasted day....."
-------------------------------------------------------------------------------------------------------
-----------------------------------------------------------------------------------10-9-10-9-10-10-10-9
-9-9-9-9-9-9-9-9-9-9-9-------------------------9-9-9-9-9-9-9--9-9--9-9---9--9--9-9---------------------
-9-9-9-9-9-9-9-9-9-9-9--7-7-7-7-7-7-7-7-7-7-7--9-9-9-9-9-9-9--9-9--9-9---9--9--9-9---------------------
-7-7-7-7-7-7-7-7-7-7-7--7-7-7-7-7-7-7-7-7-7-7--7-7-7-7-7-7-7--7-7--7-7---7--7--7-7---------------------
------------------------5-5-5-5-5-5-5-5-5-5-5----------------------------------------------------------

chorus
(same as ska Intro)

guitar solo
-------------------------------------------------------------------------
-------------------------------------------------------------------------
-------------------------------------------------------------------------
----------------------------------9^7--6^7^6-----------------------------
---7~~~~~~~~~6^7~~~~----------------------7-7----------------------------
-------------------------------------------------------------------------

part after solo
"Wasted time, wasted day, wasted day.........."
-------------------------------------------------------------------------
-X-9-X-9-X-9-X-9-X-9-X-9-X-9-X-9-X-10-X-10-X-10-X-10-X-10-X-10-X-10-X-10-
-X-9-X-9-X-9-X-9-X-9-X-9-X-9-X-9-X--9-X--9-X--9-X--9-X--9-X--9--X-9-X--9-
-X-9-X-9-X-9-X-9-X-9-X-9-X-9-X-9-X--7-X--7-X--7-X--7-X--7-X--7--X-7-X--7-
-------------------------------------------------------------------------
-------------------------------------------------------------------------

end of song
(same as ska Intro)