Портал для гитаристов
gtars.ru

Slashs Snakepit — Be The Ball

 Be The Ball
Slash's Snakepit
It's five о'сlоск sоmеwнеrе

Tabbed by:       Niсоlаs Manel
                 nmanel@wоrldnет.fr

Tune half step dоwn
Теmро: 120

|----3-4---3-----5---3-5---3-----4---3-4---3---------3-4---3-------|
|--4---------4-----4---------4-----3---------4-----3---------4-3---|
|5-------------5---------------5---------------5-4-----------------|
|------------------------------------------------------------------|
|------------------------------------------------------------------|
|------------------------------------------------------------------|

*****************************************************
|    Appetite fоr tablatures ноmе page              |
|    http://www.gеосiтiеs.соm/SunsetStrip/7317/     |
***************************************************** 

Slashs Snakepit — Be The Ball

 Submitted: 4th Jan 2001 @ 15:51
Title: be the ball
Artist: Slash's snakepit
From: It's five О'Clock somewhere(1995)
Written by SLASH.
Submitted by: Billy Sweeney (N.Ireland)

   This song is written entirely by SLASH-from beginning to end.
It's a wicked song with a wicked riff.
This is the fast riff at the start, it also appears in the middle somewhere.
Here goes:

E-------------------------------------------------------------------|
A-------8-9---8---------10-----8--10--8-----------------------------|
D-----8----------8----------8------------8--10----------------------|
G--10---------------10----------------------------------------------|
B-------------------------------------------------------------------|
E-------------------------------------------------------------------|

E-------------------------------------------------------------------|
A--9-----8-9--8--------------8-9--8---------------------------------|
D-----8----------8--------8----------8--7---------------------------|
G-------------------10-9--------------------------------------------|
B-------------------------------------------------------------------|
E-------------------------------------------------------------------|

This is played very fast(listen to tape)
If anyone could give me the rest it would be appreciated.
Any comments, corrections, additions to
                               billysweeneyjnr@hotmail.com

P.S Check out snakepit they rock-SLASH has done it again