Портал для гитаристов
gtars.ru

Slashs Snakepit — Lower

 Lоwеr (сноrus riff)
Slash's Snakepit
It's five о'сlоск sоmеwнеrе


|------------------------------------------------------------------|
|------------------------------------------------------------------|
|------------------------------------------------------------------|
|----------2-----2---------------2-4-b-5-5-5-5-5-r-4-2-4-2---------|
|--4---4-4-----4-----4-2-4-4---4-----------------------------2-2---|
|------------------------------------------------------------------|

|------------------------------------|
|------------------------------------|
|------------------------------------|
|----------2-b-----------------------|
|2-2---2-4-----4-----------4---/-7---|
|------------------2-0-2-0-----------|