Портал для гитаристов
gtars.ru

Sloan — If It Feels Good Do It

 SONG:  If It Feels Good Do It
BAND:  SLOAN
CD:    Pretty Together


(INTRO)
|-----------------------------------|---------------------------------|
|-----------------------------------|---------------------------------|
|-----------------------------------|-----------------5-5-5-5-5-5-5-5-|
|-6-6-6-6-6-6-6-6-7/87-7-7-7-7-7-7-|-8-8-8-8-8-8-8-8-x-x-x-x-x-x-x-x-|
|-6-6-6-6-6-6-6-6-6-6-6-6-6-6-6-6-6-|-6-6-6-6-6-6-6-6-6-6-6-6-6-6-6-6-|
|-4-4-4-4-4-4-4-4-4-4-4-4-4-4-4-4-4-|-4-4-4-4-4-4-4-4-4-4-4-4-4-4-4-4-|

(FIG 1)
|-----------------------------------|--------|
|-----------------------------------|--------|
|-6--6--4--6--6---4--6--6--4--------|--4-----|
|-6--6--4--6--6---4--6--6--4--4--2--|--4--4--|
|-4--4--4--4--4---4--4--4--4--4--2--|--2--4--|
|-----------------------------2--0--|-----2--|

(FIG 2)
|-----------------------------------|---------------------------------|-------------|
|-----------------------------------|---------------------------------|-------------|
|-6---6---6--6---6---6---6----------|-4--4--4-4--4--4--4--------------|-------------|
|-6---6---6--6---6---6---6--2--2--2-|-4--4--4-4--4--4--4---4---4---4--|--------2----|
|-4---4---4--4---4---4---4--2--2--2-|-2--2--2-2--2--2--2---4---4---4--|----2h4---2--|
|---------------------------0--0--0-|----------------------2---2---2--|--4----------|

(FIG 3)
|-----------------------------------|
|-----------------------------------|
|-6----------------4----------------|
|-6-------2--------4--------4-------|
|-4-------2--------2--------4-------|
|---------0-----------------2-------|

(FIG 4)
|-----------------------------------|
|-----------------------------------|
|-----------------------------------|
|-----------------------------------|
|-4--4--2--4--4-----2--3--4---------|
|----------------4-----------2--0---|

(SOLO)
|-------------------------------------------------|
|------------------------12-12--11-11---11-11-12--|
|--------9-11b13----9--9-11-11--11-11---11-11-12--|   
|--11-11---------11-------------------------------|   Im doing it from memory
|-------------------------------------------------|   so dont blame me if its 
|-------------------------------------------------|   not perfectly right.

You'll have to figure out how many times to play 
everything and all of the struming patters, but all the parts are there.
The solo isnt perfect but just fool around with it 
and it will sound fine.

Dave Schneider..............

 
Аккорд FIG

Sloan — If It Feels Good Do It

 
part right after the intro
---------------------------------------------------------------------------------------------------------------------------6-6-4-6--6--4-6-6-4--------------------------------------
---6-6-4-6--6--4-6-6-4--4-2---------------------------------
---4-4-2-4--4--2-4-4-2--4-2---------------------------------
------------------------2-0---------------------------------


verse and chorus
---------------------------------------------------------------------------------------------------------------------------66666666666---------44444444444--------------------------
---66666666666--2-2-2--44444444444--4-2---------------------
---44444444444--2-2-2--22222222222--4-2---------------------
----------------0-0-0---------------2-0---------------------


pre chorus
---------------------------------------------------------------------------------------------------------------------------6---------------4----------------------------------------
---6-------2-------4-------4--------------------------------
---4-------2-------2-------2--------------------------------
-----------0---------------2--------------------------------

If anyone could email me the intro at beerboy56@hotmail.com that would be great thanks.