Портал для гитаристов
gtars.ru

Sloan — Money City Maniacs

 #----------------------------------PLEASE NOTE--------------------------------#
#This file is the author's own work and represents their interpretation of the#
#song. You may only use this file for private study, scholarship, or research.#
#-----------------------------------------------------------------------------#
#-- File created with Instab - http://www.pconline.com/~smcarey/instab.html --#
#-----------------------------------------------------------------------------#

Author/Artist: Sloan
Title: Money City Maniacs
Transcribed by: Brandon Glowienka
Email: b_r_a_n_d_o_n@hotmail.com

heres it all cept for the solo. you guys needed this in tab for those who cant read chords.

-------------------------|----------------------------------------------------
-------------------------|----------------------------------------------------
-------------------------|----------------------------------------------------
-------7-9-9------7------|------7-9-9------7----------------------------------
---9-9-5-7-7--9-9-5-7-7--|--9-9-5-7-7--9-9-5-7-7-----9--------9---------------
---7-7--------7-7---5-5--|--7-7--------7-7---5-5-----7--------7---------------
 intro      (siren in background)                                end.         

------------------------------------------------------------------------------
------------------------------------------------------------------------------
------------------------------------------------------------------------------
-----7---9-9-9-9--------------------------------------------------------------
---9-5-7-7-7-7-7--------------------------------------------------------------
---7---5----------------------------------------------------------------------
 main riff.   repeat throughout song                                          

------------------------------------------------------------------------------
------------------------------------------------------------------------------
---999-----777----------7-----------------------------------------------------
---777-99--777-77--55-1-7-----------------------------------------------------
---777-77--555-77--55-1-5-----------------------------------------------------
-------77------55--33-3-------------------------------------------------------
  chorus X2                                                                   

----------------------|-------------------------------------------------------
----------------------|-------------------------------------------------------
-------7-x-9--7-9-7---|------7-x-9--7-9-7-------------------------------------
---9-x-7-x-9--7-9-7---|--7-x-7-x-9--7-9-7-------------------------------------
---9-x-5-x-7--5-7-5---|--7-x-5-x-7--5-7-5-------------------------------------
---7-x----------------|--5-x--------------------------------------------------
    interlude                                                                 

----------------------|-------------------------------------------------------
----------------------|-------------------------------------------------------
-------7-x-9----9-----|------7-x-9--7-9-7-------------------------------------
---9-x-7-x-9--9-9-9---|--7-x-7-x-9--7-9-7-------------------------------------
---9-x-5-x-7--9-7-9---|--7-x-5-x-7--5-7-5-------------------------------------
---7-x--------7---7---|--5-x--------------------------------------------------
    then after comes the solo. but i cant do it. then the chorus is playedX4  

------------------------------------------------------------------------------
------------------------------------------------------------------------------
------------------------------------------------------------------------------
------------------------------------------------------------------------------
------------------------------------------------------------------------------
------------------------------------------------------------------------------
             listen to the song and how it goes. and find out how many times  

------------------------------------------------------------------------------
------------------------------------------------------------------------------
------------------------------------------------------------------------------
------------------------------------------------------------------------------
------------------------------------------------------------------------------
------------------------------------------------------------------------------
 the main riff is repeated. HAVE FUN! 
Аккорд HAVE

Sloan — Money City Maniacs

 Tabbed by: Brandon Bordignon
Tuning: Standard


Bass or Guitar 2 (Palm Muted)
E|-7-7-7-7-7-7-7-7-7-7-7-7-7-7-7-7-7-7-7-7-7-7-7-7-7-7-7-7-7-7|

Guitar 1 (intro) with siren		end on
e|-----------------------------------|---------------------------------------------|
B|-----------------------------------|---------------------------------------------|
G|-----9-14-14------- --9---------|---------------------------------------------|
D|-9---9-14-14--- 9----9--9-9---|---------9-------------- 9------------------| 
A|-9---7-12-12--- 9----7--9-9---|---------9---------------9------------------|
E|-7----------------7--------7-7---|---------7---------------7------------------|

Guitar 1 (verse)
e|---------------------------------------------------------------------------|
B|---------------------------------------------------------------------------|
G|------7-------9-9-9--------------------------------------------------------|
D|--9---7--7---9-9-9---------------------------------------------------------|
A|--9---5--7---7-7-7---------------------------------------------------------|
E|--7-------5---------------------------------------------------------------|

Guitar 1 (Chorus)
e|--------------------------------------------------------------------------|
B|--------------------------------------------------------------------------|
G|---------------9-------------------------7-------------------------------|
D|---------------9----9--------------------7-- -7--------------------------|
A|---------------7----9--------------------5----7-------------------------|
E|--------------------7--------------------------5--------------------------|

     And the joke is 	when he awoke he


e|--------------------------------------------|
B|--------------------------------------------|
G|----7----7----7---------------------------|
D|----7----7----7-----7----7----7---7---5-|
A|----5----5----5-----7----7----7—7----5-|
E|----------------------5----5----5—5----3-|

     Though he was covered in Coke Fizz

Not sure about the solo please help me out!!!!