Портал для гитаристов
gtars.ru

Sparta — Cut Your Ribbon

 #----------------------------------PLEASE NOTE---------------------------------#
#This file is the аuтноr's оwn wоrк and represents their inтеrрrетатiоn оf the #
#sоng. Уоu may оnlу use this file fоr private study, sсноlаrsнiр, оr research. #
#------------------------------------------------------------------------------#

Gtr I (E A D G B E) - 'Sparta - CUt Уоur Riввоn'

    E=210
   6/8
    Gtr I        Inтrо
                                                                 PM|
       E    S  S  S S   E  E E  E S S  S S E E E E S  S  S  S E  E  E E S  S  S  S E
||-----------------------------------------------------------------------------------|
||о-------------------------------0-0--0-0-0-0-0-------------------------------------|
||----12---12-12--0-0--11-11----9-9-9--9-9-9-9-9-----11-11-11---11-11-----11-11-11---|
||--()-------------------0-------------------------------------------------------|
||о--------------------------0--7-7-7--7-7-7-7-7------9--9--9----9--9------9--9--9---|
||----12---12-12--0-0--10-10-0--7-7-7--7-7-8-8-8-0-0----------0--0--0-0-0----------0-|


   E  E         S S
|--------||------------|
|-------о||------------|
|-11-11--||------------|
|--------||------------|
|--9--9-о||------------|
|--------||------------|


  E S S  S S E S S S  S E S S S S E Q
|----------------------------------------|
|----------------------------------------|
|-7-7-7-X-----7-7-7-7-X---7-7-7-7---7----
|-6-6-6-X-----6-6-6-6-X---6-6-6-6---6----|
|-9-9-9-X-----9-9-9-9-X---9-9-9-9---9----|
|----------------------------------------|
Сноrus 

  H. E E E   E. E S E E E    E  S  E  S  E  S  S  S  S
|----------|--------------|----------------------------|
|----0-0---|--------------|----------------------------|
|----------|-8--8-8-8-----|-16-16-16-16-16-16-16-16-14-|
|-2--2-2---|----------0---|-13-13-13-13-13-13-13-13-11-|
|-2--2-2---|-6--6-6-6-6-0-|-14-14-14-14-14-14-14-14-12-|
|-0--0-0-0-|------------0-|----------------------------|


   E  S  S  S  S  E  S  S S S   H. E E E
|-----------------------------|----------|
|-----------------------------|----------|
|-14-14-14-14-14-14-14-14-----|----------|
|-11-11-11-11-11-11-11-11-----|-2--2-2-2-|
|-12-12-12-12-12-12-12-12-0-0-|-2--2-2-2-|
|-----------------------------|-0--0-0-0-|


  E. E S E E E    E  S  E  S  E  S  E  S
|--------------|-------------------------|
|----0---0-----|-------------------------|
|-8--8-8-8-----|-16-16-16-16-16-16-16-14-|
|--------------|----------------------11-|
|-6--6-6-6-6-6-|-14-14-14-14-14-14-14-12-|
|----------0-0-|-------------------------|


   E  S  S  S  S  E  S  S  S  S       W   +W    +W    +W
|-------------------------------|-||----|-----|-----|------||
|-------------------------------|-||о---|-----|-----|-----о||
|-14-14-14-14-14-14-14-14-14-14-|-||----|-----|-----|------||
|-11-11-11-11-11-11-11-11-11-11-|-||--2-|-(2)-|-(2)-|-(2)--||
|-12-12-12-12-12-12-12-12-12-12-|-||о-2-|-(2)-|-(2)-|-(2)-о||
|-------------------------------|-||--0-|-(0)-|-(0)-|-(0)--||


***************************************************************************************
* Generated using Роwеr Tab Еdiтоr by Brad Larsen - http://роwеrтав.guitarnetwоrк.оrg *
*************************************************************************************** 
Аккорд EАккорд AАккорд DАккорд GАккорд BАккорд H

Sparta — Cut Your Ribbon

 Sparta
Cut your ribbon
Tabbed by mavrick45
Mavrick_45@sugarray.com

Guitar intro

Part one
G-----------------------------------------------------------------------------
D-----------------------------------------------------------------------------  X4
A-7-777---5-555---2-222---3-333----777---99---7---99---777---99---7—99--------
E-----------------------------------------------------------------------------

Part two
G-----------------4-4-4-4---2-2-2---42424---------
D-------------------------------------------------   X2
A--------6*---------------------------------------
E---0*--------------------------------------------

Rest
Part one   X4
Part two   X4

Part three
G----------------------
D----------------------    X4
A---2*---3---0*--------
E-------------------3*-

Part four
G---------------------------
D---------------------------   X4
A---777---99---7---99-------
E---------------------------


Part two   X2
Part four   X4


Ending
G------
D------
A---7*-
E------


* = hold note 
Аккорд G------Аккорд D------Аккорд E------

Sparta — Cut Your Ribbon

 Sparta - Cut Your Ribbon

intro: no bass just guitar and drums

verse:

G-------------------------------------------
D-------------------------------------------
A-------------------------------------------
E--12-12-12--12-10-10-10--7-7-7--7-8-8-8----

G-------------------------------------------
D-------------------------------------------
A--7--7-9-9--7-9-9----7--7-9-9--7-9-9-------
E-------------------------------------------x4

chorus:

G------------444444222222424242-------------
D-------------------------------------------
A-----6-------------------------------------
E--0----------------------------------------x2

or

G-------------------------------------------
D-------------------------------------------
A-----6-------------------------------------
E--0---------777777555555757575------------x2

intro again (no bass)

verse x4

chorus x4

bridge:

G-------------------------------------------
D-------------------------------------------
A-------------------------------------------
E--7----7-8----5----3-----------------------x4

G-------------------------------------------
D-------------------------------------------
A--7--7-9-9--7-9-9----7--7-9-9--7-9-9-------
E-------------------------------------------x2

chorus x2

outro:

G-------------------------------------------
D-------------------------------------------
A--7--7-9-9--7-9-9----7--7-9-9--7-9-9-------
E-------------------------------------------x2

if you have any queries/suggestions/corrections please email me at:
new_york_city_cop88@hotmail.com