Портал для гитаристов
gtars.ru

Sparta — Rx Coup

 Intro
G2:
e|-17----------------------------
B|----19-20-17-------------------
G|-------------18-14-16-14-16-14-
D|-------------------------------
A|-------------------------------
D|-------------------------------

Verse

G1:
e|---|----------------
B|---|----------------
G|-6-|-7--------------
D|-0-|-0--7--5--4-5-4-
A|-4-|-5--7--5--4-5-4-
D|---|-0--7--5--4-5-4-

G2:
e|---|------14----
B|---|---------15-
G|---|-7----------   
D|---|-X----------   
A|---|-5----------   
D|---|------------

Chorus

G1:
e|------------
B|------------
G|-10--7------
D|-10--7--0~~-
A|-8---5--0~~-
D|-8---5--0~~-

G2:
e|----------12-8-8-8-12-8-8-8-12-8-8-8-
B|-------------------------------------
G|-10--7-------------------------------
D|-10--7--0----------------------------
A|-8---5--0----------------------------
D|-8---5--0----------------------------

Break Down
G2:
e|-12-8-8-8-12-8-8-8-12-8-8-8-12-8-8-8-
B|-------------------------------------
G|-------------------------------------
D|-------------------------------------
A|-------------------------------------
D|-------------------------------------

G1:
e|----------------------------------
B|----------------------------------
G|-------5---xx-9/11-xx-9/11-xx-97-
D|-5--3--5-0-xx-X/X--xx-x/x--xx-XX-
A|-5--3--3-0-xx-7/9--xx-7/9--xx-75-
D|-5--3----0------------------------

G2:
e|------------------------------------
B|------------------------------------
G|-------5----------------------------
D|-5--3--5-0--7-to-1.5-harmonic slide-
A|-5--3--3-0--------------------------
D|-5--3----0--------------------------

Last Riff:
e|--------------
B|--------------
G|-9--11-14--11-
D|-X--X---X--X--
A|-7--9--12--9--
D|-------------- 

Sparta — Rx Coup

 Main Riff/Verse
G|------------------|
D|---4---4----------|
A|-5---5------------|
D|---------5555-454-|

Chorus
G|------------------------------------|
D|------------------------------------|
A|------------------------------------|
D|-8-888-888-888-5-55-0-000-000-000-0-|

Interlude
G|----------------------------|
D|----------------------------|
A|----------------------------|
D|-55555555-444444444-888-0---|

Verse (0:00-0:56)
Chorus (0:56-1:19)
Verse (1:19-1:47)
Chorus (1:47-2:09)
Interlude (2:12-2:35)
Chorus (2:46-3:10)