Портал для гитаристов
gtars.ru

Sparta — Sans Cosm

 intro [CLEAN]
e---------------------------------------------------------------|
G-5-----5-----5-----5-----5---5---4-----4----4-----4----4---4---|
B---4-----4-----4-----4-------------4-----4----4-----4----------|
D-----2-----2-----2-----2---2---2-----2-----2----2-----2--2---2-|
A---------------------------------------------------------------|
E---------------------------------------------------------------|
Played twice

Clean Chords
e------------------------|
B-2------3-------3-------|
G-x------0-------0-------|
D-2------2-------4-------|
A-4------3-------5-------|
E------------------------|

Distorted Chords (figure out the strums yourself)
e-0--0--0--0--0--------|
B-0--0--0--0--0--------|
G-9--9--6--5--7--------|
D-9--9--6--5--7--------|
A-7--6--4--3--5--------|
E----------------------|

During the verses, play the distorted chords sans distortion

CHORUS (Distorted)
e-0--0--0--0--------|
B-0--0--0--0--------|
G-9--9--5--7--------|
D-9--9--5--7--------|
A-7--6--3--5--------|
E-------------------|

BRIDGE (Distorted)
e------------------|
B------------------|
G-4-----6--8-------|
D-4--2--6--8-------|
A-2--2--4--6-------|
E----0-------------| 

Sparta — Sans Cosm

 Sparta
Sans cosm
Tabbed by mavrick45
Mavrick_45@sugarray.com

Intro- guitar and drums only


Part one
G----------------------------------------------------------]
D-----------------------------------------------0-0-0-0----]  X6
A-----------------------00000000---3-3-3-3-----------------]
E---000000000000000----------------------------------------]

Part two
G-----------------------------------------------------------------------]
D-----------------------------------------------------------------------]  X2
A------------------------------------3-3-3-3-3-3-3-3/1212121212121212---]
E---00-12-00-12-00-12-00-12-00-12---------------------------------------]


Part three
G-----------------]
D--------------0--]  X2
A------0---3------]
E---0-------------]

Part one  X4
Part two  X4

Part four
G--------------------------------------------------------------]
D--------------------------------------------------------------]    X5
A---2-2-2-2--------------4-4-4-4---6-6-6-6-------7-------------]
E--------------0-0-0-0----------------------------(play the 7 on the last time only)

Rest
Part three  X3
Part one    X2
Part two    X4

Ending
G------]
D------]
A------]
E---0--]