Портал для гитаристов
gtars.ru

Spice Girls — 2 Become 1

 Bere's the guitar solo played on the song
[e-----------------------------------------
B-9-10-12-10--9---------------------------
G----------------9--------8-9-11-9--8--9--
D----------------------9------------------
A-----------------------------------------
E-----------------------------------------
 
e-----------------------------------------
B-----------------------------------------
G------------12------11---9-9-9p7-9-------
D-12-10-12-9-----9-7----------------------
A-----------------------------------------
E-----------------------------------------

e------------7-10/12----------------------
B-----7-8-10------------------------------
G-7-9-------------------------------------
D-----------------------------------------
A-----------------------------------------
E-----------------------------------------]

Lyrics:
Candle light and soul forever,
a dream of you and me together,
Say you believe it, say you believe it,
Free your mind of doubt and danger,
Be for real dont be a stranger,
We can achieve it, we can achieve it
come a little bit closer baby, get it on, get it on,
cause tonight is the night when 2 become 1

Chorus
I need some love like I never needed love before
(wanna make love to ya baby)
I had a little love, now I'm back for more
(wanna make love to ya baby)
Set your spirit free, its the only way to be
Silly games that you were playing,
Empty words we both were saying,
Lets work it out boy, lets work it out boy,
Any deal that we endeavour,
Boys and girls feel good together,
Take it or leave it, take it or leave it
Are you as good as I remember baby,
Get it on, get it on,
'cause tonight is the night when 2 become 1

Chorus
Be a little bit wiser baby,
Put it on, put it on,
'cause tonight is the night when 2 become 1

Chorus