Портал для гитаристов
gtars.ru

Static X — I’m With Stupid

 Intro:
D|-------------------------------------------------|
A|-------------------------------------------------|
F|-------------------------------------------------|
C|-------------------------------------------------|
G|-00-00-0-00-00-0-00-00-000-13~~------------------|
C|-00-00-0-00-00-0-00-00-000-13~~------------------|

D|-------------------------------------------------|
A|-------------------------------------------------|
F|-------------------------------------------------|
C|-222222-3~~---222222-3~~-------------------------|
G|-222222-3~~---222222-3~~-------------------------|
C|-222222-3~~---222222-3~~-------------------------|
Pm.......     ......
these 2's are played with palm mutting while the 
synth is making that weird sound 

D|-------------------------------------------------|
A|-------------------------------------------------|
F|-------------------------------------------------|
C|-2-1-1 -2-1-1--2-1-1--2-3------------------------|
G|-2-1-1--2-1-1--2-1-1--2-3------------------------|
C|-2-1-1--2-1-1--2-1-1--2-3------------------------|

D|-------------------------------------------------|
A|-------------------------------------------------|
F|-------------------------------------------------|
C|-------------------------------------------------|
G|-x------------------------|
C|-x------------------------|
Before the first verse wayne makes a fast pick slide 
from the pickups to the neck of the guitar

Verse:
D|-------------------------------------------------|
A|-------------------------------------------------|
F|-------------------------------------------------|
C|-222222-3~~---222222-3~~-------------------------|
G|-222222-3~~---222222-3~~-------------------------|
C|-222222-3~~---222222-3~~-------------------------|
Pm.......     ......

Chorus:
D|-------------------------------------------------|
A|-------------------------------------------------|
F|-------------------------------------------------|
C|-------------------------------------------------|
G|-00-00-0-00-00-0-00-00-000-13~~------------------|
C|-00-00-0-00-00-0-00-00-000-13~~------------------|