Портал для гитаристов
gtars.ru

Stooges — 1969

 1969 by the stooges off the stooges

deeyouembe@godisdead.com
the stooges
song: 1969


wah intro then it follows the guitar
G:---------------------------
D:---------------------------
A:------------3------------3-
E:-5-3-5-5p3-5--5-3-5-5p3-5--

after doin' that a couple times it goes higher like this

G:---------------------------
D:------------3------------3-
A:-5-3-5-5p3-5--5-3-5-5p3-5--
E:---------------------------

deeyouembe@godisdead.com