Портал для гитаристов
gtars.ru

Story Of The Year — And The Hero Will Drown

 Band: Story of the Year
Song: And the Hero Will Drown
Album: Page Avenue
Submitted By: Stand Alone (projectwyze13@hotmail.com)

Dropped D Tuning

  Intro
E|12----14-----15-----13-------------------------------
B|x------x------x------x-------------------------------
G|9-----11-----12-----11-------------------------------
D|-----------------------------------------------------
A|-----------------------------------------------------
D|-----------------------------------------------------

E|12----14-----15-----17-----19------------------------
B|x------x------x------x------x------------------------
G|9-----11-----12-----14-----16------------------------
D|--------------------------------------0-2------------
A|--------------------------------------0-2------------
D|--------------------------------------0-2------------
  Verse (listen to song for rhythm)
E|-----------------------------------------------------
B|-----------------------------------------------------
G|-----------------------------------------------------
D|3-2-0-2----3-2-0-2----3-2-0-2----3-2-0-222-0---------
A|3-2-0-2----3-2-0-2----3-2-0-2----3-2-0-222-0---------
D|3-2-0-2----3-2-0-2----3-2-0-2----3-2-0-222-0---------
  Chorus
E|-----------------------------------------------------
B|-----------------------------------------------------
G|-----------------------------------------------------
D|9-9-9-9-4-4-4-4-5-5-5-5-7-7-7-7----------------------
A|7-7-7-7-2-2-2-2-3-3-3-3-5-5-5-5----------------------
D|-----------------------------------------------------
  BridgeA
E|-----------------------------------------------------
B|-----------------------------------------------------
G|-----------------------------------------------------
D|2-2-2----2-2-2--2-2-2--2-2-2-------------------------
A|2-2-2----2-2-2--2-2-2--2-2-2-------------------------
D|2-2-2----2-2-2--2-2-2--2-2-2-------------------------

E|-----------------------------------------------------
B|(---(play 3x)------------)---------------------------
G|-----------------------------------------------------
D|2-2-2----999--2-2-2----777--2-2-2----999---x~~~~~~---
A|2-2-2----777--2-2-2----555--2-2-2----777---x~~~~~~---
D|2-2-2---------2-2-2---------2-2-2----------x~~~~~~---

  BridgeB
E|-----------------------------------------------------
B|(--(play 4x)--------)--------------------------------
G|-----------------------------------------------------
D|2-2-2-000-2-2-2-000----------------------------------
A|2-2-2-000-2-2-2-000----------------------------------
D|2-2-2-000-2-2-2-000----------------------------------


Intro
Verse 2x
Chorus 2x
Verse 2x
Chorus 4x
BridgeA
BridgeB
Chorus 8x
BridgeB 
Аккорд D

Story Of The Year — And The Hero Will Drown

 Intro
G|-------------------------------------------------------------------------
D|-------------------------------------------------------------------------
A|-------------------------------------------------------------------------
D|0h2h3-(4)-0h3-0h3-0h3h4-(4)-0h4-0h4-0h4h5-(4)-0h5-0h5-0h3h4-(4)-0h4-0h4--

G|-----------------------------------------------------------------------
D|-----------------------------------------------------------------------
A|-----------------------------------------------------------------------
D|0h2h3-(4)-0h3-0h3-0h3h4-(4)-0h4-0h4-0h4h5-(4)-0h5-0h5-0h1h2-(3)-1-1-1--

Verse
G|-----------------------------------------------------------------------
D|-----------------------------------------------------------------------
A|-----------------------------------------------------------------------
D|02--3202--3202--3202-222-000-3202--3202--3202--3202-222-000-0--0-------

Chorus1
G|-----------------------------------------
D|-----------------------------------------
A|7777-2222-3333-5555-7777-2222-3333-5555--
D|-----------------------------------------

Chorus2
G|----------------------------------------------------
D|----------------------------------------------------
A|7777-2222-3333-5555--7777-2222-3333-3333-5555-5555--
D|----------------------------------------------------
  |_______X3_________|

Bridge
G|------------------------------
D|------------------------------
A|------------------------------
D|--------------222-222-222-2~--

G|-------------------------------------------
D|-------------------------------------------
A|-------------------------------------------
D|222-222-222-222-222-00-222-00-222-000-000--

G|--------------------------------------
D|--------------------------------------
A|--------------------------------------
D|222-00-(8)-0~-00~-0~-00~-0~-0~-0~-0~--

Chorus3
G|---------------------
D|---------------------
A|3333-3333-5555-5555--
D|---------------------

G|--------------------------------------------------------
D|--------------------------------------------------------
A|7777-2222-3333-5555--3333333333333333-5555555555555555--
D|--------------------------------------------------------
  |________X6________|

Outro
G|---------------------------------
D|---------------------------------
A|---------------------------------
D|222-222-222-222-222-222-222--22--

~=let note ring

if you've any queeries or corrections e-mail me at corrosivebass@hotmail.com 

Story Of The Year — And The Hero Will Drown

 Story of the Year-And the Hero Will Drown

intro (Guitar 1) distortion

e|-0-0-0-0-0--0--0--0----------------------------|
b|-5-7-8-7-12-15-17-19---------------------------|  didnt put how many 
g|-----------------------------------------------| how many times you strum
d|-----------------------------------------------| so you figure it out.
a|-----------------------------------------------| they may have some wah in
E|-----------------------------------------------| the beginning.

verse (Guitar 2) distortion

e|-----------------------------------------------|
b|-----------------------------------------------|
g|-----------------------------------------------|
d|-2-0----2p0-0-2----2p0-0-2-22-33-33------------|  x2
a|-2-0-x1-2p0-0-2-x2-2p0-0-2-22-33-33-x1---------|
D|-2-0----2p0-0-2----2p0-0-2-22-33-33------------|

verse (guitar 1) clean

e|-----------------------------------------------| he comes in later on and 
b|-----------------------------------------------| does this but you can
g|----7-7-7----9-9-9--11-11-11-------------------| barely here it.
d|-----------------------------------------------|
a|-----------------------------------------------|
E|-----------------------------------------------|
   p.m.........................

chorus (guitar 1) distortion

e|-----------------------------------------------|
b|-----------------------------------------------| figure out the strumming
g|-9------4--------------------------------------| yourself
d|-9--9---4--4-----------------------------------| x2
a|-7--9---2--4-----------------------------------|
E|----7------2-----------------------------------|

verse again then the prechorus, you just mute the top two strings and strum them. 

then play chorus twice and strum the last chord more times than normal.

thing after chrous (guitar 1)

e|-----------------------------------------------|
b|-----------------------------------------------| do it how ever many times
g|-----------------------------------------------| you need to.
d|-2-22-444-2-22-444-2-22-444--------------------| you would slowly push 
a|-----------------------------------------------| down a pedal here.
E|-----------------------------------------------|

thing after chorus (guitar 2)

e|-----------------------------------------------|
b|-----------------------------------------------| he does this while guitar
g|-----------------------------------------------| 1 is doing the thing on 
d|--2-22-----------------------------------------| the seconf fret.
a|--2-22-----------------------------------------|
D|--2-22-----------------------------------------|

(guitar 2)

e|-----------------------------------------------|
b|-----------------------------------------------| do it however many times
g|-----------------------------------------------| you need to.
d|-2-22xxx-2-22xxx-2-22xxx-----------------------|
a|-2-22xxx-2-22xxx-2-22xxx-----------------------|
D|-2-22xxx-2-22xxx-2-22xxx-----------------------|

then go into the chorus but its clean and then it changes into distortion.

then go back to the thing above that guitar 2 does. 

And thats pretty much it. got any changes or whatever email me. jorge3186@aol.com