Портал для гитаристов
gtars.ru

Story Of The Year — Falling Down

 -----------------------------------------------------------------------------
Story of the year: Falling Down
-----------------------------------------------------------------------------

Strings: e, B, G, D, A, E

INTRO:

e|---------------------------------------------------------------------------
B|---------------------------------------------------------------------------
G|---------------------------------------------------------------------------
D|-2-2---5-5---6-6---8-8-----------------------------------------------------
A|-2-2---5-5---6-6---8-8-----------------------------------------------------
E|-0-0---3-3---4-4---6-6-----------------------------------------------------

VERSE: ( The Same As The Intro)

CHORUS:

e|---------------------------------------------------------------------------
B|---------------------------------------------------------------------------
G|-4-4-4-4-5-5-5-5-2-2-2-2----------5-5-5-5----------5-5-5-5-----------------
D|-4-4-4-4-5-5-5-5-2-2-2-2-2x2x2x2x-3-3-3-3-2x2x2x2x-3-3-3-3-----------------
A|-2-2-2-2-3-3-3-3-0-0-0-0-2x2x2x2x-3-3-3-3-2x2x2x2x-3-3-3-3-----------------
E|-------------------------0x0x0x0x---------0x0x0x0x-------------------------

BRIDGE:

e|---------------------------------------------------------------------------
B|---------------------------------------------------------------------------
G|-------------------------7-7-5-3-3-5---------------------------------------
D|5x5x5x5x5x5x5x5x---------7-7-5-3-3-5---------------------------------------
A|5x5x5x5x5x5x5x5x---------5-5-3-1-1-3---------------------------------------
E|5x5x5x5x5x5x5x5x-----------------------------------------------------------

Well Thats all folks.... A great song by Story of the year......... Best... Jaha.. 
Аккорд EАккорд A