Портал для гитаристов
gtars.ru

Syd Matters — Obstacles

 e||--------------0--------------------0---------------
B||--------1--------1-----1----3--------3----1-----1--
G||-----2-----2--------2-----------2-------------2----
D||--3------------------------------------------------
A||---------------------------------------------------
E||---------------------------------------------------

e||------------0-----------------------0---------------
B||------1--------1-----1-----3----------3-----1-----1-
G||---0-----0--------0-------------0---------------0---
D||----------------------------------------------------
A||-3--------------------------------------------------
E||----------------------------------------------------

Intro: G D G D G D

G                      D
Let's say sunshine for everyone
               G            D
But as far as I can remember
G                     D
We've been migratory animals
          G                D
Living under changing weather
G                        D
Someday we will foresee Obstacles
                 G                     D
Through the blizzard, through the blizzard

G                       D
Today we will sell our uniform
           G              D
Live together, live together

G                                    
Blizzard Blizzard Blizzard Blizzard
D    
Blizzard Blizzard Blizzard Blizzard
G                                     
Blizzard Blizzard Blizzard Blizzard  
D
Blizzard Blizzard Blizzard Blizzard...

G                        D
Someday we will foresee Obstacles
                 G                     D
Through the blizzard, through the blizzard
G                       D
Today we will sell our uniform
           G              D
Live together, live together      
Bm                          D
We played hide and seek in waterfalls
             G                D
We were younger, we were younger
Bm                          D 
We played hide and seek in waterfalls
             G                D
We were younger, we were younger
Bm                          D 
We played hide and seek in waterfalls
             G                D
We were younger, we were younger
Bm                          D 
We played hide and seek in waterfalls
             G                D
We were younger, we were younger 
G                        D                 
Someday we will foresee Obstacles
                 G                     D
Through the blizzard, through the blizzard. 
Аккорд GАккорд DАккорд Bm