Портал для гитаристов
gtars.ru

System Of A Down — Psycho

 E|-----------------------------------------------------------| 
B|-----------------------------------------------------------| 
G|-----------------------------------------------------------| 
D|-----------------------------------------------------------| 
A|-----------------------------------------------------------| 
E|-2----2---2-2----2-2--2-2-2-2--2----2---2-2---2-2--2-2-2-2-| 
 
E|-----------------------------------------------------------| 
B|-----------------------------------------------------------| 
G|-----------------------------------------------------------| 
D|-----------------------------------------------------------| 
A|-----------------------------------------------------------| 
E|-0----0---0-0---0-0---0-0-0-0--0----0---0-0---0-0--0-0-0-0-| 
 
this is the guitar intro (X2) 
 
(А) 
E|12--X--12--X--12--X-X-12--X----12--X--X-12--X--12--X--12--X-X-| 
B|--------------------------------------------------------------| 
G|--------------------------------------------------------------| 
D|--------------------------------------------------------------| 
A|--------------------------------------------------------------| 
E|--------------------------------------------------------------| 
 
E|10--X--10--X-X-10--X--10--X-X--10--X-X-10--X-X-10--X--10--X-X-| 
B|--------------------------------------------------------------| 
G|--------------------------------------------------------------| 
D|--------------------------------------------------------------| 
A|--------------------------------------------------------------| 
E|--------------------------------------------------------------| 
 
E|13--13------13--------13---13---13---13---13---13---13---13---13-----13---13-| 
B|-----------------------------------------------------------------------------| 
G|-----------------------------------------------------------------------------| 
D|-----------------------------------------------------------------------------| 
A|-----------------------------------------------------------------------------| 
E|-----------------------------------------------------------------------------| 
 
E|13--13--13--13----13--13---13--13-| 
B|----------------------------------| 
G|----------------------------------| 
D|----------------------------------| 
A|----------------------------------| 
E|----------------------------------| 
 
IN THIS PART START THЕ SONG 
(В) 
E|--------------------------------------------------------------| 
B|--------------------------------------------------------------| 
G|--------------------------------------------------------------| 
D|--------------------------------------------------------------| 
A|2--2--2----------2--2--2-----------2--2--2------------2--2--2-| 
E|2--2--2----------2--2--2-----------2--2--2------------2--2--2-| 
 
E|---------------------------------------------------------------| 
B|---------------------------------------------------------------| 
G|---------------------------------------------------------------| 
D|---------------------------------------------------------------| 
A|2--2--2----------2--2--2-----------2--2--2-------------2--2--2-| 
E|2--2--2----------2--2--2-----------2--2--2-------------2--2--2-| 
 
(С) 
E|------------------------------------------------------------------------| 
B|------------------------------------------------------------------------| 
G|------------------------------------------------------------------------| 
D|------------------------------------------------------------------------| 
A|2---------2---------2---------2---------2---------2---------2---------2-| 
E|2---3--3--2---3--3--2---3--3--2---3--3--2---3--3--2---3--3--2---3--3--2-| 
 
E|------------------------------------------------------------------------| 
B|------------------------------------------------------------------------| 
G|------------------------------------------------------------------------| 
D|------------------------------------------------------------------------| 
A|2---------2---------2---------2---------2---------2---------2---------2-| 
E|2---3--3--2---3--3--2---3--3--2---3--3--2---3--3--2---3--3--2---3--3--2-| 
 
E|------------------------------------------------------------------------| 
B|------------------------------------------------------------------------| 
G|------------------------------------------------------------------------| 
D|------------------------------------------------------------------------| 
A|2---------2---------2---------2---------2---------2---------2---------2-| 
E|2---3--3--2---3--3--2---3--3--2---3--3--2---3--3--2---3--3--2---3--3--2-| 
 
E|------------------------------------------------------------------------| 
B|------------------------------------------------------------------------| 
G|------------------------------------------------------------------------| 
D|------------------------------------------------------------------------| 
A|2---------2---------2---------2---------2---------2---------2---------2-| 
E|2---3--3--2---3--3--2---3--3--2---3--3--2---3--3--2---3--3--2---3--3--2-| 
 
(D): 
E|-----------------------------------------------------------------------------| 
B|-----------------------------------------------------------------------------| 
G|--7-----7------7-------7----7------7--------7///////10------10------10----10-| 
D|--7-----7------7-------7----7------7--------7///////10------10------10----10-| 
A|--5-----5------5-------5----5------5--------5///////8-------8-------8-----8--| 
E|-----------------------------------------------------------------------------| 
 
E|-----------------------------------------------------------------------------| 
B|-----------------------------------------------------------------------------| 
G|-10---------10-----(10)//----------------------------------------------------| 
D|-10---------10-----(10)///---------------------------------------------------| 
A|-8----------8------(8)/////2--2--2-------2--2--2-------2--2--2-------2--2--2-| 
E|---------------------------2--2--2-------2--2--2-------2--2--2-------2--2--2-| 
 
REPEAT PART (С) 
 
(Е) 
E|-----------------------------------------------------------------------------| 
B|-----------------------------------------------------------------------------| 
G|-----------------------------------------------------------------------------| 
D|--2--------------------------------------0---------2-----------------------0-| 
A|--2--------------------------------------0---------2-------------------------| 
E|--2--------------------------------------0---------2-------------------------| 
 
E|-----------------------------------------------------------------------------| 
B|--------3----3-----3---------3------3-----3----------------------------------| 
G|---1----1----1-----1---------1------1-----1----2----2---2---2---4---5----4-5-| 
D|---2-------------------2-----------------------0-----------------------------| 
A|-----------------------------------------------------------------------------| 
E|-----------------------------------------------------------------------------| 
 
E|-----------------------------------------------------------------------------| 
B|----------------------------------------3---------3--------3-------3---3---3-| 
G|-4-----4-----4---2---2---2--------------2---------2--------2-------2---4---2-| 
D|------------------------------3--------------3-------------------------------| 
A|-----------------------------------------------------------------------------| 
E|-----------------------------------------------------------------------------| 
 
E|-----------------------------------------------------------------------------| 
B|-----------------------------------------------------------------3---------3-| 
G|---------------------------------------------------------1-------1---------1-| 
D|---------------------------------------------------------2-------------------| 
A|-2--2--2------2--2--2------2--2--2------2--2--2------------------------------| 
E|-2--2--2------2--2--2------2--2--2------2--2--2------------------------------| 
 
E|-----------------------------------------------------------------------------| 
B|(3)--3-----3---3---3---------------------------------------------------------| 
G|(1)--1-----1---1---1----2--------2---2----4---5--5/7-----5----5---4--4--2--2-| 
D|--------2---------------0----------------------------------------------------| 
A|-----------------------------------------------------------------------------| 
E|-----------------------------------------------------------------------------| 
 
E|-----------------------------------------------------------------------------| 
B|----3---3------3----------3---3---3------------------------------------------| 
G|----2---2------2----------2---4---2------------------------------------------| 
D|-3----------------3----------------------------------------------------------| 
A|------------------------------------2--2--2----2--2--2----2--2--2----2--2--2-| 
E|------------------------------------2--2--2----2--2--2----2--2--2----2--2--2-| 
 
E|-----------------------------------------------------------------------------| 
B|------------------------------10/12------(12)--------10--12---12------12--12-| 
G|-----------------------------------------------------------------------------| 
D|-----------------------------------------------------------------------------| 
A|-2--2--2-------2--2--2-------------------------------------------------------| 
E|-2--2--2-------2--2--2-------------------------------------------------------| 
 
B|-----------------------------------------------------------------------------| 
G|-13---12-13-12-10------10/12---------10---9------9---10--10/12------------10-| 
D|-----------------------------------------------------------------------------| 
A|-----------------------------------------------------------------------------| 
E|-----------------------------------------------------------------------------| 
 
E|-----------------------12----------------------------------------------------| 
B|--10/12---------10--12-----------12--12---13-12-13-12-10----(10)----10----10-| 
G|-----------------------------------------------------------------------------| 
D|-----------------------------------------------------------------------------| 
A|-----------------------------------------------------------------------------| 
E|-----------------------------------------------------------------------------| 
 
G|-------------------------------------------------------------0---0---0---0-| 
D|-10/12-10-9-9-9---9--10--9---9--9-10--12-10---9-10----10--12--12--12--12---| 
A|----------------------------------------------------9----------------------| 
E|---------------------------------------------------------------------------| 
 
E|-----0----0----0----0----0----0----0----0----0----0----0-----0-| 
B|--12---12---12---12---13---13---13---12---12---10---10---10----| 
G|---------------------------------------------------------------| 
D|---------------------------------------------------------------| 
A|---------------------------------------------------------------| 
E|---------------------------------------------------------------| 
 
E|-----0----0----0----0----0----0----0----0-----------0----0----0-| 
B|--10---10---10---10---12---12---10---9-----0--10--12--12---12---| 
G|----------------------------------------------------------------| 
D|----------------------------------------------------------------| 
A|----------------------------------------------------------------| 
E|----------------------------------------------------------------| 
 
E|-----0----0----0----0----0----0----0----0----0----0----0----0-| 
B|--12---12---12---10---12---12---12---12---12---12---10---12---| 
G|--------------------------------------------------------------| 
D|--------------------------------------------------------------| 
A|--------------------------------------------------------------| 
E|--------------------------------------------------------------| 
 
E|-----0----0----0----0----0----0------0-------0-------0------0--------0-----0-| 
B|--15---15---15---13---13---12----10------10------10------12------10--------9-| 
G|-----------------------------------------------------------------------------| 
D|-----------------------------------------------------------------------------| 
A|-----------------------------------------------------------------------------| 
E|-----------------------------------------------------------------------------| 

System Of A Down — Psycho

   Настройка : drop D (e,b,g,d,a,D)


Intro: Глушоный дисторшэн
e---------------------------------------------------------
b---15-15-15-15-15-15-15-15-13-13-13-13-13-13-13-13-------
g---------------------------------------------------------
d---------------------------------------------------------
a---------------------------------------------------------
d---------------------------------------------------------
   |_______________________3х___________________________|
- на последней ноте intro надо тянуть струну

риф 1: дисторшэн
e---------------------------------------------------------
b---------------------------------------------------------
g---------------------------------------------------------
d---0-0-0х--0-0-0х--0-0-0х--0-0-0х------------------------
a---0-0-0х--0-0-0х--0-0-0х--0-0-0х------------------------
d---0-0-0х--0-0-0х--0-0-0х--0-0-0х------------------------
   |______________2x_______________|

риф 2: дисторшэн
e---------------------------------------------------------
b---------------------------------------------------------
g---------------------------------------------------------
d---------------------------------------------------------
a---------------------------------------------------------
d---0-0-0-0-0-0-0-0-0-0-0-0-0-0-0х------------------------
   |________________________2x___________________________|
   
риф 3 : дисторшэн
e---------------------------------------------------------
b---------------------------------------------------------
g---------------------------------------------------------
d---5----------------8------------------------------------
a---5----------------8------------------------------------
d---5----------------8------------------------------------
   

риф 1: дисторшэн
e---------------------------------------------------------
b---------------------------------------------------------
g---------------------------------------------------------
d---0-0-0х--0-0-0х--0-0-0х--0-0-0х------------------------
a---0-0-0х--0-0-0х--0-0-0х--0-0-0х------------------------
d---0-0-0х--0-0-0х--0-0-0х--0-0-0х------------------------
 

риф 2: дисторшэн
e---------------------------------------------------------
b---------------------------------------------------------
g---------------------------------------------------------
d---------------------------------------------------------
a---------------------------------------------------------
d---0-0-0-0-0-0-0-0-0-0-0-0-0-0-0х------------------------
   |________________________2x___________________________|

риф 3 : дисторшэн
e---------------------------------------------------------
b---------------------------------------------------------
g---------------------------------------------------------
d---5----------------8------------------------0/8---------
a---5----------------8------------------------0/8---------
d---5----------------8------------------------0/8---------

Куплет
e---------------------------------------------------------
b---10----10-10-10-10-11-8---8-10-11-13-11-10-8/13---8-8-8
g---------------------------------------------------------
d---------------------------------------------------------
a---------------------------------------------------------
d---------------------------------------------------------
   

e---------------------------------------------------------
b--8-8-8-10-8---------------------------------------------
g---------------------------------------------------------
d---------------0-0-0х--0-0-0х--0-0-0х--0-0-0х------------
a---------------0-0-0х--0-0-0х--0-0-0х--0-0-0х------------
d---------------0-0-0х--0-0-0х--0-0-0х--0-0-0х------------

Соло :  

e---------------------------------------------------------
b--10--8-10-11--10-11-10-~8~~~-8-10-8-7-8-10--8-10---8-10-
g---------------------------------------------------------
d---------------------------------------------------------
a---------------------------------------------------------
d---------------------------------------------------------

e---------------------------------------------10-10-10-10-
b-15--15--15--8--8-10-8-7--7-8-7--7-8-10-8-7--10-10-10-10-
g-------14--14--------------------------------------------
d---------------------------------------------------------
a---------------------------------------------------------
d---------------------------------------------------------

e-10-10-10-10-10-10-10-10-10-10-10-10-10-10-10-10-10-10-10
b-8--10-11-11-11-11-10-11-10-8---8-10-8--7--8--10--8-10--8
g---------------------------------------------------------
d---------------------------------------------------------
a---------------------------------------------------------
d---------------------------------------------------------

e-10-10-10-10-10-10-10-10-10------------------------------
b-10-13-13-13-11-11-10-8--10-7----------------------------
g---------------------------------------------------------
d---------------------------------------------------------
a---------------------------------------------------------
d---------------------------------------------------------

Lyrics:

Psycho, groupie, cocaine, crazy
Psycho, groupie, cocaine, crazy

Psycho groupie cocaine crazy
Psycho groupie coke,
Makes you high, makes you hide,
Makes you really want to go - stop.

Psycho groupie cocaine crazy
Psycho groupie coke,
Makes you high, makes you hide,
Do you really want to think and stop,
Stop your eyes from flowing,

Psycho, groupie, cocaine, crazy
Psycho groupie cocaine crazy
Psycho groupie coke,
Makes you high, makes you hide,
Makes you really want to go - stop.

Psycho groupie cocaine crazy
Psycho groupie coke,
Makes you high, makes you hide,
Do you really want to think and stop,
Stop your eyes from flowing out

So you want the world to stop,
Stop in and watch your body fully drop,
From the time you were a
Psycho, groupie, cocaine, crazy

So you want to see the show,
You really don´t  have to be a hoe
From the time you were a
Psycho, groupie, cocaine, crazy

Psycho groupie, cocaine crazy
Psycho groupie coke,
Makes you high, makes you hide,
Makes you really want to go - stop.

Psycho groupie cocaine crazy
Psycho groupie coke,
Makes you high, makes you hide,
Do you really want to think and stop,
Stop your eyes from flowing out

So you want the world to stop,
Rushing to watch your spirit fully drop,
From the time you were a
Psycho, groupie, cocaine, crazy

So you want to see the show,
You really don´t have to be a hoe
From the time you were a
Psycho, groupie, cocaine, crazy. 
Аккорд D

System Of A Down — Psycho

 D5
PSYCHO, GROUPIE, COCAINE, CRAZY
D#5
PSYCHO, GROUPIE, COCAINE, CRAZY
D5
Psycho, groupie, cocaine, crazy
Psycho, groupie, coke
       D#5
Makes you high, makes you hide
Makes you really want to Go - Stop!
D5
Psycho, groupie, cocaine, crazy
Psycho, groupie, coke
       D#5
Makes you high, makes you hide
     D                C
Do you really want to think and stop?
       D#
Stop your eyes from flowing
 
PSYCHO, GROUPIE, COCAINE, CRAZY
Psycho, groupie, cocaine, crazy
Psycho, groupie, coke
Makes you high, makes you hide
Makes you really want to Go - Stop!

Psycho, groupie, cocaine, crazy
Psycho, groupie, coke
Makes you high, makes you hide
     D                C
Do you really want to think and stop?
       D#           D  C D
Stop your eyes from flowing out~

D                 C
So you want the world to stop
                        D#
Stop in and watch your body fully drop

From the time you were a
 D5
Psycho, groupie, cocaine, crazy

So you want to see the show
You really don't have to be a Ho
From the time you were a
Psycho, groupie, cocaine, crazy

Psycho, groupie, cocaine, crazy
Psycho, groupie, coke
Makes you high, makes you hide
Makes you really want to Go - Stop!

Psycho, groupie, cocaine, crazy
Psycho, groupie, coke
Makes you high, makes you hide
Do you really want to think and stop?
Stop your eyes from flowing out~

So you want the world to stop
Rushing to watch you spirit fully drop
From the time you were a
Psycho, groupie, cocaine, crazy

So you want to see the show
You really don't have to be a Ho
From the time you were a
Psycho, groupie, cocaine, crazy 
Аккорд D5Аккорд D#5Аккорд DАккорд CАккорд D#