Портал для гитаристов
gtars.ru

Высоцкий Владимир — Лирическая

 
      Am             F        E
Здесь лапы у елей дрожат на весу,
              E7       Am
Здесь птицы щебечут тревожно.
  Em75- A7             Dm
Живешь в заколдованном диком лесу,
  F              E7sus4  E7
Откуда уйти невозможно.
        Am                H7
Пусть черемухи сохнут бельем на ветру,
         G7sus4 G7     C     A7
Пусть дождем опадают сирени,
       Dm            Am
Все равно я отсюда тебя заберу
      F7 E7              Am
Во дворец, где играют свирели.

Твой мир колдунами на тысячи лет
Укрыт от меня и от света.
И думаешь ты, что прекраснее нет,
Чем лес заколдованный этот.
Пусть на листьях не будет росы поутру,
Пусть луна с небом пасмурным в ссоре,
Все равно я отсюда тебя заберу
В светлый терем с балконом на море.

В какой день недели, в котором часу
Ты выйдешь ко мне осторожно?
Когда я тебя на руках унесу
Туда, где найти невозможно?
Украду, если кража тебе по душе,
Зря ли я столько сил разбазарил.
Соглашайся хотя бы на рай в шалаше,
Если терем с дворцом кто-то занял.
 
Аккорд AmАккорд FАккорд EАккорд E7Аккорд Em75-Аккорд A7Аккорд DmАккорд E7sus4Аккорд H7Аккорд G7sus4Аккорд G7Аккорд CАккорд F7

Высоцкий Владимир — Лирическая

       Am             F7       E7         E7sus  E7       Am
Здесь лапы у елей дрожат на весу, здесь птицы щебечут тревожно.
   A-9         A7      Dm             F     F7      E7sus  E7
Живешь в заколдованном диком лесу, откуда уйти невозможно.
         Am               B7                    G7sus   G7     C
Пусть черемухи сохнут бельем на ветру, пусть дождем опадают сирени.
  A7    Dm            Am              F7  E7            Am
Все равно я отсюда тебя заберу во дворец, где играют свирели.

Твой мир колдунами на тысячи лет укрыт от меня и от света.
И думаешь ты, что прекраснее нет, чем лес заколдованный этот.
Пусть на листьях не будет росы поутру,
                        пусть луна с небом пасмурным в ссоре.
Все равно я отсюда тебя заберу в светлый терем с балконом на море.

В какой день недели, в котором часу ты выйдешь ко мне осторожно ?
Когда я тебя на руках унесу туда, где найти невозможно ?
Украду, если кража тебе по душе. Зря ли я столько сил разбазарил ?
Соглашайся хотя бы на рай в шалаше, если терем с дворцом кто-то занял. 
Аккорд AmАккорд F7Аккорд E7Аккорд E7susАккорд A-9Аккорд A7Аккорд DmАккорд FАккорд B7Аккорд G7susАккорд G7Аккорд C

Высоцкий Владимир — Лирическая

    Am                        F             E
e||-------0-----------0-----|-------1-----|-------0-----|
B||-----1---1-------1---1---|-----1---1---|-----0---0---|
G||---2-------2---2-------2-|---2-------2-|---1-------1-|
D||-------------2-----------|-------------|-------------|
A||-0-----------------------|-3-----------|-------------|
E||-------------------------|-------------|-0-----------|

   Am                        C             
e||-------0-----------0-----|-------0-----------0-----|
B||-----1---1-------1---1---|-----1---1-------1---1---|
G||---2-------2---2-------2-|---0-------0---0-------0-|
D||-------------2-----------|-------------2-----------|
A||-0-----------------------|-3-----------------------|
E||-------------------------|-------------------------|

   A7                        Dm             
e||-------3-----------3-----|-------1-----------1-----|
B||-----2---2-------2---2---|-----3---3-------3---3---|
G||---2-------2---2-------2-|---2-------2---2-------2-|
D||-------------2-----------|-------------0-----------|
A||-0-----------------------|-0-----------------------|
E||-------------------------|-------------------------|

   F                         E
e||-------1-----------1-----|-------0-----|
B||-----1---1-------1---1---|-----0---0---|
G||---2-------2---2-------2-|---1-------1-|
D||-------------3-----------|-------------|
A||-3-----------------------|-------------|
E||-------------------------|-0-----------|

       Am             F      E
Здесь лапы у елей дрожат на весу,
        Am              C  
Здесь птицы щебечут тревожно.
   A7                    Dm  
Живешь  в заколдованном диком лесу,
   F              E
Откуда уйти невозможно.

            Am                Dm       
    Пусть черемухи сохнут бельем на ветру,
              G             C    A7
    Пусть дождем опадают сирени,
            Dm            Am
    Все равно я отсюда тебя заберу
           F           E       Am
    Во дворец,  где играют свирели.

Твой мир колдунами на тысячи лет
Укрыт от меня и от света.
И думешь ты, что прекраснее нет,
Чем лес заколдованный этот.

	Пусть на листьях не будет росы поутру,
	Пусть луна с небом пасмурным в ссоре,
	Все равно я отсюда тебя заберу
         В светлый терем с балконом на море.

В какой день недели, в котором часу
Ты выйдешь ко мне осторожно?..
Когда я тебя на руках унесу
Туда, где найти невозможно?..

	Украду, если кража тебе по душе, -
	Зря ли я столько сил разбазарил?
	Соглашайся хотя бы на рай в шалаше,  
	Если терем с дворцом кто-то занял!      2 раза 
Аккорд AmАккорд FАккорд EАккорд CАккорд A7Аккорд DmАккорд G