Портал для гитаристов
gtars.ru

Eighties Matchbox B-line Disaster — Celebrate Your Mother

 EIGHTIES MATCHBOX B-LINE DISASTER
     ~Celebrate Your Mother~

Tabbed by Paulo T (http://www.geocities.com/onelastchance)
24/1/03

Order
Verse 1
First Riff x 2
Verse 2
Second Riff
Verse 3
Third Riff x 1
First Riff x 1
Verse 4
Long Bit
Second Riff x 2
Verse 5
Second Riff x 2
End on

 Bass Intro (Plays all the way through probably)
G---------------------------------------------------------------
D---------------------------------------------------------------
A---------------------------------------------------------------
E-0-0-0-0--3-0-0-0--0-0-0-0--0-0-0-0--0-0-0-0--3-3-3-3-2-2-2-2--

 Verse 1 - Gtr 1
e--0------------0------------0------------
B--0------------0------------0--r---------
G--1----4-3-----1----4-3-4---1--e--3--4---
D--2----5-4-----2----5-4-5---2--s--4--5---
A--2----5-4-----2----5-4-5---2--t--4--5---
E--0----3-2-----0----3-2-3---0-----2--3---

 First Riff Gtr 1
e-----------------------------------------------------
B-----------------------------------------------------
G-----------------------------------------------------
D-----------------------------------------------------
A-----------------------------------------------------
E--0-3-0-3-0-3-0--0-3-0-3-0-3-0-3-3-3-3-3-2-2-2-2-2---

 First Riff Gtr 2 - Basically backs up gtr 1's riff
e-----------------------------------------------------
B-----------------------------------------------------
G-------------------------------4-4-4-4-4-3-3-3-3-3---
D-------------------------------5-5-5-5-5-4-4-4-4-4---
A-------------------------------5-5-5-5-5-4-4-4-4-4---
E-------------------------------3-3-3-3-3-2-2-2-2-2---

 Verse 2 - Gtr 1
e--0------------
B--0------------
G--1----4-3-4---
D--2----5-4-5---
A--2----5-4-5---
E--0----3-2-3---

 Verse 2 - Gtr 2 (directly After gtr 1)
e-----------------------------------------------------
B-----------------------------------------------------
G-----------------------------------------------------
D-----------------------------------------------------
A-----------------------------------------------------
E--3-3-0-3-0-3-0-3-0-0-0-0-0-2-3-3-3-3-3-2-2-2-2-2----

Gtr 2 plays left hand mute on open strings

 Second Riff Gtr 1 
e-----------------------------------------------------
B-----------------------------------------------------
G-----------------------------------------------------
D-----------------------------------------------------
A-----------------------------------------------------
E--3-3-0-3-0-3-0-3-0-0-0-0-0-2-3-3-3-3-3-2-2-2-2-2----

 Verse 3 - Gtr 1
e--0------------0----------
B--0------------0----------
G--1----4-3-----1----4-3-4-
D--2----5-4-----2----5-4-5-
A--2----5-4-----2----5-4-5-
E--0----3-2-----0----3-2-3-

 Gtr 2 - after Gtr 1
e-----------------------------------------------------
B-----------------------------------------------------
G-----------------------------------------------------
D-----------------------------------------------------
A-----------------------------------------------------
E--3-3-0-3-0-3-0-3-0-0-0-0-0-2-3-3-3-3-3-2-2-2-2-2----

 Third Riff
e---------------------------------------------------
B---------------------------------------------------
G---------------------------------------------------
D--2-2-0-2--5-4-5-4-2-0-2--0------------------------
A---------------------------------------------------
E-----------------------------3-3-3-3-3-2-2-2-2-2---

 Verse 4 - Gtr 1
e--0------------0------------0---
B--0------------0------------0---
G--1----4-3-----1----4-3-----1---
D--2----5-4-----2----5-4-----2---
A--2----5-4-----2----5-4-----2---
E--0----3-2-----0----3-2-----0---

Long Bit - Gtr 1
e--------------------------------------------------------------------------------
B--------------------------------------------------------------------------------
G--------------------------------------------------------------------------------
D----0---0---2---2---2------0---0---0---2---2------5---5------------4----4-------
A---2-2---2---2---2---2----2-2---2---2---2---2----5-5---5----------4-4----4------
E--0---0---0---0---0------0---0---0---0---0---0--3---3---3---etc--2---2----2-etc-

Long Bit - Gtr 2 - Based around these notes
e--------------------------
B--12-12-12----14--15--17--
G--------------------------
D--------------------------
A--------------------------
E--------------------------

 Verse 5 - Gtr 1
e--0------------0----------
B--0------------0----------
G--1----4-3-----1----4-3-4-
D--2----5-4-----2----5-4-5-
A--2----5-4-----2----5-4-5-
E--0----3-2-----0----3-2-3-

End on:
e--------------------------------------
B--------------------------------------
G--1-----------------------------------
D--2-----------------------------------
A--2-----------------------------------
E--0----------------------------------- 

Eighties Matchbox B-line Disaster — Celebrate Your Mother

 e|----------------------------------------------------|
B|----------------------------------------------------|
G|----------------------------------------------------|
D|----------------------------------------------------|
A|----------------------------------------------------|
E|-0-0-0-0-3-0-0-0-0-0-0-0-0-0-0-0-0-0-3-3-3-3-2-2-2-2|

e|-0---3--2--3---0--3--2--3----------2-3-------------------------|
B|-0---3--2--3---0--3--2--3----------2-3-------------------------|
G|-1---4--3--4---1--4--3--4----------3-4-------------------------|
D|-2---5--4--5---2--5--4--5----------4-5-------------------------|
A|-2---5--4--5---2--5--4--5----------4-5-------------------------|
E|-0---3--2--3---0--3--2--3----------2-3-------------------------|

e|------------------------------3333333322222222---------------------------|
B|------------------------------3333333322222222---------------------------|
G|------------------------------4444444433333333---------------------------|
D|------------------------------5555555544444444---TIMES 2-----------------|
A|------------------------------5555555544444444---------------------------|
E|-0-3p0-3p0-3p0-(0)00 3p0-3p0--3333333322222222---------------------------|

e|-0---3--2--3---|-------------------33333323222222222----------------------|
B|-0---3--2--3---|-------------------33333333222222222----------------------|
G|-1---4--3--4---|-------------------44444444433333333-----TIMES 2----------|
D|-2---5--4--5---|-------------------55555555544444444----------------------|
A|-2---5--4--5---|-------------------55555555544444444----------------------|
E|-0---3--2--5---|-3-3P0-3P0-3P0-3P0-33333333322222222----------------------|

e|-0---3---2---0---3---2--------3-2---------------------------------------|
B|-0---3---2---0---3---2--------3-2---------------------------------------|
G|-1---4---3---1---4---3--------4-3---------------------------------------|
D|-2---5---4---2---5---4--------5-4---------------------------------------|
A|-2---5---4---2---5---4--------5-4---------------------------------------|
E|-0---3---2---0---3---2--------3-2---------------------------------------|

e|-------------------------3333322222----------------------------------|
B|-------------------------3333322222----------------------------------|
G|-------------------------4444433333----------------------------------|
D|-2-2P0H2P0-5-5-4-4-2P0H--5555544444---------------------CHORDY BIY---|
A|-------------------------5555544444----------------------------------|
E|-------------------------3333322222-0-3P0-3P0-3P000-3P0-3P0----------|

THATS ALL I KNOW 

Eighties Matchbox B-line Disaster — Celebrate Your Mother

  ------------------------------------------------------------------
	celebrate your mother - the 80's matchbox b-line disaster
--------------------------------------------------------------------

i think this is right but im not sure. but it still sounds good
(and ive tried it live) and it works.

intro

G|-------------------------------------------------------|
D|-------------------------------------------------------|
A|-------------------------------------------------------|
E|-0-0-0-0-3-0-0-0-0-0-0-0-0-0-0-0-0-0-0-3-3-3-3-2-2-2-2-|

verse one: the timing isnt perfect but hey. i wrote cord where the lead plays

(ОR УОU CAN CARRY ОN PLAYING THE INТRО

G|-D------------------D---------D------------D----D-|
D|-R------------------R---------R------------R----R-| TIMES 2
A|-О------------------О---------О------------О----О-|
E|-C-0000000000000000-C-3-33333-C-2-22222----C-33-C-|

wierd lead bit 1

G|------------------------------------------------------------------|
D|------------------------------------------------------------------|
A|-------LEAD BIT-----------------------LEAD BIT--------------------|
E|-2-3--------------33333333-22222222-------------33333333-22222222-|

verse 2

G|-D------------------D---------D---------|
D|-R------------------R---------R---------| TIMES 2
A|-О------------------О---------О---------|
E|-C-0000000000000000-C-3-33333-C-2-22222-|

wierd lead bit 2

G|------------------------------------------------------------------------
D|------------------------------------------------------------------------
A|------------------------------------------------------------------------
E|-0-0-0-0-0-0-0-0-0-000-33333333-22222222-0-0-0-0-0-0-0-0-0-000-33333333-

----------|
----------|
----------|
-22222222-|

verse 3

G|-------------------------------------------------------------|
D|-------------------------------------------------------------|
A|-------------------------------------------------------------|
E|-0-0-0-0-3-0-0-0-0-0-0-0-0-0-0-0-0-0-0-0-0-0-0-0-0-0-0-0-3-2-|
|====================palm muted================================|

wierd lead bit 3

G|------------------------------------------------------------------|
D|------------------------------------------------------------------|
A|-------LEAD BIT-----------------------LEAD BIT--------------------|
E|-2-3--------------33333333-22222222-------------33333333-22222222-|

verse 4

G|-------------------------------------------------------------|
D|-------------------------------------------------------------|
A|-------------------------------------------------------------|
E|-0-0-0-0-3-0-0-0-0-0-0-0-0-0-0-0-0-0-0-0-0-0-0-0-0-0-0-0-3-2-|

long bit

G|------------------------------------------------------|
D|--0--0--0--2--2-----0--0--0--0--2--2--2--5--5--4--4---|I THINK ITS TIMES 2
A|-2-2--2--2--2--2---2-2--2--2--2--2--2--2--3--3--3--3--|
E|0---0--0--0--0--0-0---0--0--0--0--0--0--0--0--0--0--0-|

THEN:

wierd lead bit 2

verse 1

wierd lead bit 2