Портал для гитаристов
gtars.ru

Разные песни — Morrowind Theme (OST «The Elder Scrolls III»)

 e|---------------------------------------------------------------------------|
B|---------------------------------------------------------------------------|
G|-----------------------0----------------------------------------0-2--0-4-2-|
D|---------------0-2---2---0---2h0-------------------------0-2--2------------|
A|----0-2-3----3--------------------3-2-0-----0-2-3----3---------------------|
E|---------------------------------------------------------------------------|

e|---------------------------------------------------------------------------|
B|-------1-------------------------------------------------------------------|
G|--2-4----4-2-0-------------------------------------------------------------|
D|---------------3-2-0----2-0------------------------------------------------|
A|----------------------3------3-2-0-----------------------------------------|
E|---------------------------------------------------------------------------|